Tantric - Mourning Chords & Tabs

 

Mourning Chords & Tabs

Tantric Chords & Tabs

Version: 2 Type: Tab 0 ratings
1 star 2 stars 3 stars 4 stars 5 stars
comments

Mourning Tab

   
Half Step Down
E-A-D-Gb-B-E

Intro (Down Pick Through Intro With These Chords)
E--0--0--0--0--0---0--0--0-----------------------
B--0--0--0--0--0---0--0--0-----------------------
Gb-0--0--0--0--0---0--0--0-----------------------
D--9--7--2--5--7---9--7--2-----------------------
A--9--7--2--5--7---9--7--2-----------------------
E--7--5--0--3--5---7--5--0-----------------------

Verse
E--0--0------------------------
B--0--2------------------------
Gb-5--0------------------------
D--0--0------------------------x4
A--5--2------------------------
E--3--0------------------------
[ Tab from: http://www.guitartabs.cc/tabs/t/tantric/mourning_tab_ver_2.html ]
Pre-Chorus
E--0--0-------------------------------
B--0--0-------------------------------
Gb-7--5-------------------------------
D--7--5-------------------------------
A--7--5-------------------------------
E--5--3-------------------------------

Chorus
E--0--0--0--0-------------------------
B--0--0--0--0-------------------------
Gb-0--0--0--0-------------------------
D--9--7--2--5-------------------------x4
A--9--7--2--5-------------------------
E--7--5--0--3-------------------------

Bridge
E--0--0--0--0--0----------------------
B--0--0--0--0--0----------------------
Gb-0--0--0--0--0----------------------
D--9--7--2--5--7----------------------
A--9--7--2--5--7----------------------
E--7--5--0--3--5----------------------

Intro
Verse
Pre-Chorus (pause)
Chorus
Intro
Verse
Pre-Chorus
Chorus
Bridge
Chorus

Comments