Tantric - Live Your Life Chords & Tabs

 

Live Your Life Chords & Tabs

Tantric Chords & Tabs

Version: 1 Type: Tab 0 ratings
1 star 2 stars 3 stars 4 stars 5 stars
comments

Live Your Life Tab

   
Db Ab Db Gb Bb Eb

Clean                                  Distortion
------------------------------------|-----------------------------------
-----------------------------------.|-----------------------------------
------------2-----------------------|-----------------------------------
------2-4-5-----------0-5-4-0-------|---2-----0-------------------------
----2---------------0--------------.|---2-----0-------------------------
--2---------------0-----------------|---2-----0-------------------------

[ Tab from: http://www.guitartabs.cc/tabs/t/tantric/live_your_life_tab.html ]
Distortion
------------------------------------------------------------------------
------------------------------------------------------------------------
------------------------------------------------------------------------
-2---5---7---10---------2---5---3---------------------------------------
-2---5---7---10---------2---5---3---------------------------------------
-2---5---7---10---------2---5---3---------------------------------------


Distortion
----------------------------------------|-------------------------------
---------------------------------------.|-------------------------------
----------------------------------------|-------------------------------
--2--0--2--7--5--8--7--8--7--5--2--0----|-------------------------------
--2--0--2--7--5--8--7--8--7--5--2--0---.|-------------------------------
--2--0--2--7--5--8--7--8--7--5--2--0----|-------------------------------

Those are all the parts. Listen to the CD for where they go.
Comments