Tantric - Just Once Chords & Tabs

 

Just Once Chords & Tabs

Tantric Chords & Tabs

Version: 1 Type: Tab 0 ratings
1 star 2 stars 3 stars 4 stars 5 stars
comments

Just Once Tab

I haven't seen any tabs for this so here is mine

Guitar tuned 1/2 step down


Intro and Verse

Let ring throughout

----3p0-------------0--7-----0---0----------------------------------|
----3p0-----0h1--3-------0-----0------------------------------------|
---------------------------5----------0--------0--------0-----------|
-------------------------------------------0h2------0h2------2------|
-0-------0-------------------------7\-------------------------------|
-----------------------------------------1--------1--------1--------|

[ Tab from: http://www.guitartabs.cc/tabs/t/tantric/just_once_tab.html ]
--------------------------------------------------------------------|
--------------------------------------------------------------------|
--------0-----2p0-------0-------------------------------------------|
---0h2-------------0------------------------------------------------|
--------------------------------------------------------------------|
-3---------3---------3----------------------------------------------|


Chorus chords


--------------------------------------------------------------------|
--------------------------------------------------------------------|
--------------------------------------------------------------------|
-7--5--10--7--5--7--3--5--------------------------------------------|
-7--5--10--7--5--7--3--5--------------------------------------------|
-5--3--8---5--3--5--1--3--------------------------------------------|


This is the second try at my first tab.  Hopefully soon I can get the
solo done for you.  Till then, enjoy
Comments