Tantric - Ill Stay Here Chords & Tabs

 

Ill Stay Here Chords & Tabs

Tantric Chords & Tabs

Version: 1 Type: Tab 0 ratings
1 star 2 stars 3 stars 4 stars 5 stars
comments

Ill Stay Here Tab

Tantric 
  
Song title- I'll stay here 
Artist- Tantric 
Tabist- Jeff Scherer 
E-mail- bluenerd2000@yahoo.com      x = mute 
  
Intro-    Look into yourself…… 
  
[ Tab from: http://www.guitartabs.cc/tabs/t/tantric/ill_stay_here_tab.html ]
E----3----3-3-3------1--------------------- 
B----5----5-5-5------3--------------------- 
G----4----4-4-4------2--------------------- 
D---------------------------------------------     x2 
A--------------------------------------------- 
E---------------------------------------------- 
  
  
  
E----3----3-3-3------1-1-1------------- 
B----5----5-5-5------3-3-3------------- 
G----4----4-4-4------2-2-2------------- 
D------------------------------------------   x1   
A------------------------------------------ 
E------------------------------------------- 
  
  
  
E----3----3-3-3------1--------------------- 
B----5----5-5-5------3--------------------- 
G----4----4-4-4------2--------------------- 
D---------------------------------------------     x1 
A--------------------------------------------- 
E---------------------------------------------- 
  
  
  
E----3----3-3-3----------------------------- 
B----5----5-5-5----------------------------- 
G----4----4-4-4----------------------------- 
D---------------------------------------------     x1 
A--------------------------------------------- 
E---------------------------------------------- 
  
  
  
Song-     to you… yeah 
  
This is a bar chord. 
E--1---1-1--1-1--------3-x-3-3--------5-x-5-5--------3-x-3-3--- 
B--1---1-1--1-1--------3-x-3-3--------5-x-5-5--------3-x-3-3--- 
G--2---2-2--2-2--------4-x-4-4--------6-x-6-6--------4-x-4-4--- 
D--3---3-3--3-3--------5-x-5-5--------7-x-7-7--------5-x-5-5---many times 
A--3---3-3--3-3--------5-x-5-5--------7-x-7-7--------5-x-5-5--- 
E--1---1-1--1-1--------3-x-3-3--------5-x-5-5--------3-x-3-3--- 
  
  
  
I've seen it all before…….    Also a bar chord. 
E------5-5-x-5-5-x-5-5-x-5-5-------3-3-x-3-3-x-3-3-x-3-3---- 
B------5-5-x-5-5-x-5-5-x-5-5-------3-3-x-3-3-x-3-3-x-3-3---- 
G------6-6-x-6-6-x-6-6-x-6-6-------4-4-x-4-4-x-4-4-x-4-4---- 
D------7-7-x-7-7-x-7-7-x-7-7-------5-5-x-5-5-x-5-5-x-5-5---x1 (when this  
A------7-7-x-7-7-x-7-7-x-7-7-------5-5-x-5-5-x-5-5-x-5-5---part comes up) 
E------5-5-x-5-5-x-5-5-x-5-5-------3-3-x-3-3-x-3-3-x-3-3---- 
  
  
  

Solo 
  
E---------------------------------------------------------------- 
B---------------------------------------------------------------- 
G---------------------------------------------------------------- 
D---------------------------------------------------------------- 
A---------------------------------------------------------------- 
E---0-7-7-7-5-7-9-7-5-3-3-3-0-3-3-3-3-1-3-5-3-1-1-1-1 
  

This whole song is perfect if you get the timing right. 
  
If you can't figure out the timing from the tab listen to the song.


Comments