Tantric - Hate Me Chords & Tabs

 

Hate Me Chords & Tabs

Tantric Chords & Tabs

Version: 3 Type: Tab 0 ratings
1 star 2 stars 3 stars 4 stars 5 stars
comments

Hate Me Tab

   
Author/Artist: Tantric 
Title: Hate Me  
Album: Tantric 
Transcribed by: Tim Barr

4/14/01 
[ Tab from: http://www.guitartabs.cc/tabs/t/tantric/hate_me_tab_ver_3.html ]
Intro 
------66------66-------|---------------------| 
------66------66-------|------44------44---4-| 
------66------66-------|------44------44---4-| 
-6h8-8---6h8-8---6h866-|------44------44-444-| 
-----------------------|-----------------66--| 
-----------------------|-4h7-7---4h7-7---7---| 
                    ** last two 6's you palm mute or you can just mute xx 
                                                           
Verse/Pre-Chorus 
----66----66-------|----------------| 
----66----66-------|----44----44-44-| 
----66----66-------|----44----44-44-| 
-6h8---6h8---6h8---|----44----44-44-| 
-------------------|----------------| 
-------------------|-4h7---4h7------| 
                                                                               
Chorus - strums not indicated 
   w   w   w      w 
-|---|---|---|---------| 
-|---|---|---|---------| 
-|-8-|---|---|-------8-| 
-|-8-|-9-|-6-|-9-6-x-8-| 
-|-6-|-9-|-6-|-9-6-x-6-| 
-|---|-7-|-4-|-7-4-x---| 
  D#   B   G# 
                                                                             
Solo 
this four measure rythm is strummed behind the solo 
listen closly for the rythm the first time because it's 
difficult to pick up during the solo 
      w              w              w              w            @ 2:14 gradually swells in volume (cres.)  
-------------|---------------|-------------|---------------|    ------ 
-------------|---------------|-------------|---------------|    -16v-- 
-8-8888-8888-|-8-8888-888888-|-8-8888-8888-|-8-8888-888888-|    ------ 
-8-8888-8888-|-8-8888-888888-|-8-8888-8888-|-8-8888-888888-|    ------ 
-6-6666-6666-|-6-6666-666666-|-6-6666-6666-|-6-6666-666666-|    ------ 
-------------|---------------|-------------|---------------|    ------ 
                                                                    

------------------------------------------------------------------- 
---------------------------------------------------------------16-- 
----------------------------------------------15-15h18p15-15-18---- 
----------------11h13p11-----13-13h15p13-15-18--------------------- 
-11h13p11--11-13--------13-16-------------------------------------- 
---------13--------------------------------------------------------                                                                               
                    then this 1x 
----------          ------------   
-----11---          -----11/16-- 
-8-11-----  (10x)   -8-11------- 
----------          ------------ 
----------          ------------ 
----------          ------------ 

------------------------------------------------------------------------------ 
-----------14-14h16p14-------------------------------------------------------- 
------13-15-----------13-11--11---13-13-11-11--11----------------------------- 
-13-16---------------------13----------------13--13-13-11-11------------------ 
------------------------------------------------------------13-11b------------ 
------------------------------------------------------------------------------ 
                                                                               

------------------------- 
------------------------- 
------------------------- 
-------11------11-13v---- 
-11b-13--11b-13---------- 
------------------------- 
                                                                               

---------- 
-----11--- 
-8-11-----   (6x) 
---------- 
---------- 
----------

Comments