Tantric - Hate Me Chords & Tabs

 

Hate Me Chords & Tabs

Tantric Chords & Tabs

Version: 1 Type: Tab 0 ratings
1 star 2 stars 3 stars 4 stars 5 stars
comments

Hate Me Tab

   
Intro-4 times...

  D#m                              Bmaj                        C#m
----------6-6-----------6-6---6-6-----------2-2-----------2-2--4-4---
----------7-7-----------7-7---7-7-----------4-4-----------4-4--6-6---
-----8----8-8-----8-----8-8---8-8-----4-----4-4-----4-----4-4--6-6---
--------8------------8-------------------4-------------4-------6-6---
--6------------6-------------------2-------------2-------------4-4---
  x            x                   x             x             x x

[ Tab from: http://www.guitartabs.cc/tabs/t/tantric/hate_me_tab.html ]
...then it’s only the 3 chords just changed a little for each part

  D#m(x68876)    Bmaj(x24442)   C#m(x46664)


Chorus-however many times

---------------------------------------------------------------------
---------------------------------------------------------------------
---------------------------------------------------------------------
--8--8-----------4--4------------------------------------------------
--6--6--6--6--6--2--2--6--6--6---------------------------------------
  x  x  4  4  4  x  x  4  4  4


-And the solo is on the way.

                                        -Greg
Comments