Tantric - Breakdown Chords & Tabs

 

Breakdown Chords & Tabs

Tantric Chords & Tabs

Version: 7 Type: Tab 0 ratings
1 star 2 stars 3 stars 4 stars 5 stars
comments

Breakdown Tab

Author/Artist: TANTRIC
Title: Breakdown
Transcribed by: keogh (France)
Email: keogh1977@hotmail.com

Tuned down a half-step (Chords given in regular tuning)
EADGBE --> D#G#C#F#A#D#

acoustic
------------------------------------------------------------------------------ 
------------------------------------------------------------------------------ 
---2p0---4p0---5p0---4p0---2-----2p0----4p0---2p0---4p0---2------------------- 
------------------------------------------------------------------------------ 
-0-------0-----0-----0-----0--------------------------------------------------- 
-------------------------------1--------1-----0-----0-----0------------------- 
 INTRO AND VERSE                                                               
[ Tab from: http://www.guitartabs.cc/tabs/t/tantric/breakdown_tab_ver_7.html ]
------------------------------------------------------------------------------ 
------------------------------------------------------------------------------ 
---2p0---4p0---5p0---7p0---9-----2p0----4p0---2p0---4p0---2------------------- 
------------------------------------------------------------------------------ 
-0-------0-----0-----0-----0-------------------------------------------------- 
-------------------------------1--------1-----0-----0-----0-------------------


 CHORUS                                                                        
electric guitar
saturation
------------------------------------------------------------------------------ 
------------------------------------------------------------------------------ 
------------------------------------------------------------------------------ 
-7-7----3-3----5-5-5-5-------------------------------------------------------- 
-7-7----3-3----5-5-5-5-------------------------------------------------------- 
-5-5----1-1----3-3-3-3-------------------------------------------------------- 
Comments