Tantric - Breakdown Chords & Tabs

 

Breakdown Chords & Tabs

Tantric Chords & Tabs

Version: 6 Type: Tab 0 ratings
1 star 2 stars 3 stars 4 stars 5 stars
comments

Breakdown Tab

   
BAND: Tantric
SONG: Breakdown


Tuning: Dropped D 
       (Db Ab Db Gb Bb Eb)

Intro:

Play fast, pull off onto open G string
repete couple of times

Eb|----------------------------------------|--------------------------
Bb|----------------------------------------|--------------------------
Gb|-----2p0-----4p0-----5p0-----4p0-----2--|-----2p0-----4p0-----2p0--
Db|----------------------------------------|--------------------------
Ab|--0-------0-------0-------0-------0-----|--------------------------
Db|----------------------------------------|--3-------3-------0-------

Eb|----------------|-----------------------------------------|--------
Bb|----------------|-----------------------------------------|--------
Gb|-----4p0-----2--|-----2p0-----4p0-----5p0-----7p0-----9\--|-----2p0
Db|----------------|-----------------------------------------|--------
Ab|----------------|--0-------0-------0-------0-------0------|--------
Db|--0-------0-----|-----------------------------------------|--3-----
[ Tab from: http://www.guitartabs.cc/tabs/t/tantric/breakdown_tab_ver_6.html ]
Eb|--------------------------------|----------------------------------
Bb|--------------------------------|----------------------------------
Gb|-----4p0-----2p0-----4p0-----2--|---------------------------------
Db|--------------------------------|----------------------------------
Ab|--------------------------------|----------------------------------
Db|--3-------0-------0-------0-----|----------------------------------

Chorus:

Play with as much deep, crunchy distortion your amp has.

Eb|-------------------------------------|-----------------------------
Bb|-------------------------------------|-----------------------------
Gb|-------------------------------------|-----------------------------
Db|--7---7---7----7--3----3--3--3--3----|--5----5----5--5--5--5--3--5-
Ab|--7---7---7----7--3----3--3--3--3----|--5----5----5--5--5--5--3--5-
Db|--7---7---7----7--3----3--3--3--3----|--5----5----5--5--5--5--3--5-

Eb|----------------|
Bb|----------------|
Gb|----------------|
Db|-5--5--5----5---|
Ab|-5--5--5----5---|
Db|-5--5--5----5---|

I'm sorry I don't have the weird bridge part
Comments