Tantric - Breakdown Chords & Tabs

 

Breakdown Chords & Tabs

Tantric Chords & Tabs

Version: 4 Type: Tab 0 ratings
1 star 2 stars 3 stars 4 stars 5 stars
comments

Breakdown Tab

   
TANTRIC - Breakdown

Dropped-D tuned down half-step 

(Intro/Verses)
-------------------------------------|---------------------------------------- 
-------------------------------------|---------------------------------------- 
---2p0-----4p0-----5p0-----4p0------2|--2p0-----4p0-----2p0-----4p0-----2----- 
-------------------------------------|---------------------------------------- 
-0-------0-------0-------0-------0---|---------------------------------------- 
-------------------------------------|3-------3-------0-------0-------0------- 
                                                                               

--------------------------------------|--------------------------------------- 
--------------------------------------|--------------------------------------- 
---2p0-----4p0-------5p0-----7p0-----9|--2p0-----4p0-----2p0-----4p0-----2---- 
--------------------------------------|--------------------------------------- 
-0-------0-------0---------0-------0--|--------------------------------------- 
--------------------------------------|3-------3-------0-------0-------0------                                                                

(Chorus)
   (A)   (F)   (G)
------------------------------------------------------------------------------ 
------------------------------------------------------------------------------ 
------------------------------------------------------------------------------ 
---7-7----3-3---5-5------------------5x5x5x---5-5----------------------------- 
---7-7----3-3---5-5----(X5)----------5x5x5x---5-5----------------------------- 
---7-7----3-3---5-5------------------5x5x5x---5-5----------------------------- 
                                         
[ Tab from: http://www.guitartabs.cc/tabs/t/tantric/breakdown_tab_ver_4.html ]
(Bridge)
----0-----0-----0------------------------------------------------------------- 
----3-----3-----3------------------------------------------------------------- 
----2-----2-----2------------------------------------------------------------- 
----0-----0-----0------------------------------------------------------------- 
-0---------------------------------------------------------------------------- 
--------3-----0--------------------------------------------------------------- 


(LYRICS)                          
In your life you seem to have it all ,You seem to have control 
But deep within your soul , You're losing it 
You never took the time , Assume that you're to blame 
You think that you're insane , Won't you spare me 
 
I know the breakdown, everything is gonna shake now someday 
I know the breakdown, tell me again am i awake now maybe 
You can find the reason that no one else is living this way yeah 

Ya, your lies your world is built around two faces of a clown 
The voices in your head think there's four pawns down 
Well in this unity fate has found the need 
So, You better check yourself before you check out 

I know the breakdown, everything is gonna shake now someday 
I know the breakdown, tell me again am i awake now maybe 
You can find the reason that no one else is living this way yeah 

If you find yourself then you might believe 
Then within yourself you just might conceive 

I know the breakdown, everything is gonna shake now someday 
I know the breakdown, tell me again am i awake now maybe 
You can find the reason that no one else is living this way yeah 

You can find the reason that 
(you can find the reason that) 
No one else is living this way 
(you can find the reason that way) 


"Just the basics of the song... Enough to learn the rest on your own..."

"Tabbed by Moose"

Moose97@sympatico.ca

Comments