Tantric - Breakdown Chords & Tabs

 

Breakdown Chords & Tabs

Tantric Chords & Tabs

Version: 1 Type: Tab 0 ratings
1 star 2 stars 3 stars 4 stars 5 stars
comments

Breakdown Tab

here is the intro:
[ Tab from: http://www.guitartabs.cc/tabs/t/tantric/breakdown_tab.html ]
e|------------------------------------------------------------|
B|------------------------------------------------------------|
G|---2p0---4p0---5p0---4p0---2------2p0---4p0---2p0---4p0---2-|
D|------------------------------------------------------------|
A|-0-----0-----0-----0-----0----------------------------------|
E|--------------------------------1-----1-----1-----1-----1---|

e|------------------------------------------------------------|
B|------------------------------------------------------------|
G|---2p0---4p0---5p0---7p0---9------2p0---4p0---2p0---4p0---2-|
D|------------------------------------------------------------|
A|-0-----0-----0-----0-----0----------------------------------|
E|--------------------------------1-----1-----1-----1-----1---|
Comments