Tantric - Break Down Chords & Tabs

 

Break Down Chords & Tabs

Tantric Chords & Tabs

Version: 1 Type: Tab 0 ratings
1 star 2 stars 3 stars 4 stars 5 stars
comments

Break Down Tab

#----------------------------------PLEASE NOTE--------------------------------#
#This file is the author's own work and represents their interpretation of the#
#song. You may only use this file for private study, scholarship, or research.#
#-----------------------------------------------------------------------------#
#-- File created with Instab - http://www.pconline.com/~smcarey/instab.html --#
#-----------------------------------------------------------------------------#

Author/Artist: Tantric
Title: Break Down
Album: Tantric
Transcribed by: st2012
Email: st2012@hotmail.com

Dropped D tuning.
[ Tab from: http://www.guitartabs.cc/tabs/t/tantric/break_down_tab.html ]
------------------------------------------------------------------------------
------------------------------------------------------------------------------
---2p0---4p0---5p0---4p0---2----2p0---4p0---2p0---4p0---2---------------------
------------------------------------------------------------------------------
-0-----0-----0-----0-----0----------------------------------------------------
------------------------------3-----3-----0-----0-----0-----------------------
                                                                              

------------------------------------------------------------------------------
------------------------------------------------------------------------------
---2p0---4p0---5p0---7p0---9\----2p0---4p0---2p0---4p0---2--------------------
------------------------------------------------------------------------------
-0-----0-----0-----0-----0----------------------------------------------------
-------------------------------3-----3-----0-----0-----0----------------------
                                                                              

------------------------------------------------------------------------------
------------------------------------------------------------------------------
-2-2--------------------------------------------------------------------------
-2-2---3-3---5-5-5-5----------------------------------------------------------
-0-0---3-3---5-5-5-5----------------------------------------------------------
-------3-3---5-5-5-5----------------------------------------------------------
                                                                              

Comments