Tantric - Astounded Chords & Tabs

 

Astounded Chords & Tabs

Tantric Chords & Tabs

Version: 1 Type: Tab 0 ratings
1 star 2 stars 3 stars 4 stars 5 stars
comments

Astounded Tab

Tantric's Astounded

Tuning - Drop D 1/2 step down
Low to high = Db - Ab - Db - Gb - Bb - Eb

h   = hammer on
p   = pull off
/H  = bend half
/H\ = bend half and back
/F  = bend full
/Q  = bend quarter

INTRO and VERSE: 
---------------------------------------------------------------------
---------------------------------------------------------------------
------------0----0------------0----0------------0--------------------
--0-h-2-------------0-h-2-------------0-h-2--------------------------
---------0-----------------0-----------------0-----------------------
---------------------------------------------------------------------
_____________________________________________________________________

---------------------------------------------------------------------
------------------------------------------------3--------------------
--------------------------------------2-p-0--------------------------
------------0----0------------0----0---------0-----------------------
---------3-----------------3-----------------------------------------
--0-h-3-------------3-h-5--------------------------------------------
_____________________________________________________________________
[ Tab from: http://www.guitartabs.cc/tabs/t/tantric/astounded_tab.html ]
During the verse the fills under the vocals are
-----------------------
-----------------------
-------7/H\7-----------
-----------------------
-----------------------
-----------------------
CHORUS:
"Hey,   hey,   hey                   I just found my way      
----------------------------------------------------------------------
----------------------------------------------------------------------
----------------------------------------------------------------------
--7------------5--------------------5--------3--------5-------5-------
--7------------5--------------------5--------3--------5-------5-------
--7------------5--------------------5--------3--------5-------5-------
______________________________________________________________________
All you stupid  F*ckers  walk  around   astounded  and   drownin'"
----------------------------------------------------------------------
----------------------------------------------------------------------
----------------------------------------------------------------------
-7-------7-------5----------------5-----------3---3---3--5---5--5--5--
-7-------7-------5----------------5-----------3---3---3--5---5--5--5--
-7-------7-------5----------------5-----------3---3---3--5---5--5--5--
REPEAT THIS RIFF FOR THE REST OF THE CHORUS
______________________________________________________________________
SOLO:
there are 5 guitars in this solo and Guitars 3,4 & 5 overlap on parts
Guitar 1 Plays the INTRO/VERSE RIFF 8X
Guitar 2 Plays this:
---------------------------
---------------------------
--------------5--5---------
--5--5--7--7---------------
---------------------------
---------------------------
Guitar 3:      (repeat 5X)                   End with this:
---------------------------------------|---------------------------------
---------------------------------------|---------------------------------
--7--8--7--5--7------7--8--7--5--7-----|---------------------------------
-----------------7------------------7--|-----5/7----------------------------
---------------------------------------|---------------------------------
---------------------------------------|---------------------------------
_______________________________________________________________________
after that, Guitar 3:
------12-------------------------------------
--13------13--12-----------------------------
------------------12-------------------------
----------------------12--10-----------------
---------------------------------------------
---------------------------------------------
_____________________________________________
then, Guitar 4 comes in with:
------12-------------------------------------
--13------13--12-----------------------------
------------------12-------------------------
----------------------12--10~~~~~~~~~~~~~~~~~
---------------------------------------------
---------------------------------------------
_____________________________________________
Guitar 3 immediatly starts in with:
---------------------------------------------
---------------------------------------------
-------------------5~~~~~~~~~~~~-------------
-----7-p-5----7------------------------------
---------------------------------------------
---------------------------------------------
_____________________________________________
Guitar 4 then does this:
---------------------------------------------
---------------------------------------------
-----------------5~~~~~~~~~~~~~~-------------
-----7-p-5--7--------------------------------
---------------------------------------------
---------------------------------------------
_____________________________________________
Guitar 3 comes in right before 4 finishes with:
---------------------------------------------
---------------------------------------------
----------7/H\7/H\7--------------------------
--7-p-5--------------------------------------
---------------------------------------------
---------------------------------------------
______________________________________________________________________
Guitar 3:                            Guitar 2:
--3--3--5--5--8--8--10--10--12--12--|----------------------------------
--3--3--5--5--8--8--10--10--13--13--|----5--8-----5--8-----5--8-----5--8
------------------------------------|-7--------7--------7--------7-----
------------------------------------|----------------------------------
------------------------------------|----------------------------------
------------------------------------|----------------------------------
______________________________________________________________________

----------------------------------------------------------------------
-----5--8-----5--8-----5--8-----5--8-----5--8-----5--8--5--8----------
--7--------7--------7--------7--------7--------7----------------------
----------------------------------------------------------------------
----------------------------------------------------------------------
----------------------------------------------------------------------
______________________________________________________________________

-------5--5-------5--5-------5--5-------5--5-------5--5---------------
--8/Q--------8/Q--------8/Q--------8/Q--------8/Q---------------------
----------------------------------------------------------------------
----------------------------------------------------------------------
----------------------------------------------------------------------
----------------------------------------------------------------------
______________________________________________________________________

--7-p-5-----8-p-5-----7-p-5-----8-p-5-----7-p-5--8-p-6----------------
---------5---------5---------5---------5------------------------------
----------------------------------------------------------------------
----------------------------------------------------------------------
----------------------------------------------------------------------
----------------------------------------------------------------------
______________________________________________________________________
guitar 5 also comes in here while guitar 2 does this:
-12-p-8------12-p-8------12-p-8------12-p-8------12-p-8------8--15----
---------10----------10----------10----------10----------10-----------
----------------------------------------------------------------------
----------------------------------------------------------------------
----------------------------------------------------------------------
----------------------------------------------------------------------
______________________________________________________________________

--12-15-12-------------------------------------------------------------
-----------13---12\sl-8------------------------------------------------
-------------------------9---------------------------------------------
----------------------------10--9--------------------------------------
-----------------------------------10--7-------------------------------
------------------------------------------10--9--7/F\7--X--X--5--7--7--
______________________________________________________________________

----------------------------------------------------------------------
----------------------------------------------------------------------
---------------------------------------------------5--5---------------
---------------------------------------5--5--7--7---------------------
---------------------3--3--5--5--7--7---------------------------------
-X---X---5--5--7--7---------------------------------------------------
______________________________________________________________________

Guitar 5:
---------12-p-8------12-p-8------12-p-8------12-p-8------12-p-8------
-----12----------11----------10----------10----------10----------10--
--9------------------------------------------------------------------
---------------------------------------------------------------------
---------------------------------------------------------------------
---------------------------------------------------------------------
_____________________________________________________________________

--12-p-8------8--15---12-15-12---------------------------------------
----------10-------------------13----12--10\sl-8---------------------
--------------------------------------------------9------------------
-----------------------------------------------------10--9-----------
------------------------------------------------------------10--7----
---------------------------------------------------------------------
_____________________________________________________________________

---------------------------------------------------------------------
---------------------------------------------------------------------
---------------------------------------------------------------------
---------------------------------------------------------------------
---------------------------------------------------------------------
-10--9--7--5--7------------------------------------------------------

Guitars 2 and 5 play these last two solos together so you
have to listen to the song for all the placements of this stuff

in the end this is repeated 4X
----------12---------------
--10-12--------------------
--------9------------------
---------------------------
---------------------------
---------------------------
And the very end is this
------------------------------------------------
------------------------------------------------
--------0-------0-------0-----------------------
----2-------2-------2---------------------------
--0---0---0---0---0---0-------------------------
------------------------------------------------

THis is very close to the original -- if you see any mistakes 
or you're looking for other tabs, Email me at PHIL@ICE9ROCKS.COM
or at MOSFET205@AOL.COM
Comments