Tankcsapda - Fordulj Fel Chords & Tabs

 

Fordulj Fel Chords & Tabs

Tankcsapda Chords & Tabs

Version: 1 Type: Bass Tab 0 ratings
1 star 2 stars 3 stars 4 stars 5 stars
comments

Fordulj Fel Bass Tab

   
Tankcsapda - Fordulj fel
(tab by Razer)
TablEdited by 
Tuning : E A D G 	Time Signature: 4/4

 |   |   |   |    |   |   |   |    |   |   |   |    |   |   |   |    
|----------------|----------------|----------------|----------------|
|----------------|----------------|----------------|----------------|
|----------------|----------------|----------------|----------------|
|3-0-0-3-0-0-3-0-|3-0-0-3---3-3-3-|3-0-0-3-0-0-3-0-|3-0-0-3---3-3-3-|

 |   |   |   |    |   |   |   |    |   |   |   |    |   |   |   |    
|----------------|----------------|----------------|----------------|
|----------------|----------------|----------------|----------------|
|----------------|----------------|----------------|----------------|
|3-0-0-3-0-0-3-0-|3-0-0-3---3-3-3-|3-0-0-3-0-0-3-0-|3-0-0-3---3-3-3-|

 |   |   |   |    |   |   |   |    |   |   |   |    |   |   |   |    
|----------------|----------------|----------------|----------------|
|----------------|----------------|----------------|----------------|
|----------------|----------------|----------------|----------------|
|3-0-0-3-0---3-0-|3-0-0-3-0---3-0-|3-0-0-3-0---3-0-|3-0-0-3-0---3-0-|

 |   |   |   |    |   |   |   |    |   |   |   |    |   |   |   |    
|----------------|----------------|----------------|----------------|
|----------------|----------------|----------------|----------------|
|----------------|----------------|----------------|----------------|
|3-0-0-3-0---3-0-|3-0-0-3-0---3-0-|3-0-0-3-0---3-0-|3-0-0-3-0---3-0-|

 |   |   |   |    |   |   |   |    |   |   |   |    |   |   |   |    
|----------------|----------------|----------------|----------------|
|----------------|----------------|----------------|----------------|
|----------------|----------------|----------------|----------------|
|3-0-0-3-0-0-0-0-|3-0-0-3-0-0-0-0-|3-0-0-3-0---3-0-|3-0-0-3-0---3-0-|

 |   |   |   |    |   |   |   |    |   |   |   |    |   |   |   |    
|----------------|----------------|----------------|----------------|
|----------------|----------------|----------------|----------------|
|----------------|----------------|----------------|----------------|
|3-0-0-3-0-0-0-0-|3-0-0-3-0-0-0-0-|3-0-0-3-0---3-0-|3-0-0-3-0---3-0-|

 |   |   |   |    |   |   |   |    |   |   |   |    |   |   |   |    
|----------------|----------------|----------------|----------------|
|----------------|----------------|----------------|----------------|
|3-3-3-3-3-3-3-3-|3-3-3-3-3-3-3-3-|5-5-5-5-5-5-5-5-|5---------------|
|----------------|----------------|----------------|----------------|

 |   |   |   |    |   |   |   |    |   |   |   |    |   |   |   |    
|----------------|----------------|----------------|----------------|
|----------------|----------------|----------------|----------------|
|----------------|----------------|----------------|----------------|
|3-0-0-3-0---3-0-|3-0-0-3-0---3-0-|3-0-0-3-0---3-0-|3-0-0-3-0---3-0-|

 |   |   |   |    |   |   |   |    |   |   |   |    |   |   |   |    
|----------------|----------------|----------------|----------------|
|----------------|----------------|----------------|----------------|
|----------------|----------------|----------------|----------------|
|3-0-0-3-0---3-0-|3-0-0-3-0---3-0-|3-0-0-3-0---3-0-|3-0-0-3-0---3-0-|

 |   |   |   |    |   |   |   |    |   |   |   |    |   |   |   |    
|----------------|----------------|----------------|----------------|
|----------------|----------------|----------------|----------------|
|----------------|----------------|----------------|----------------|
|3-0-0-3-0-0-0-0-|3-0-0-3-0-0-0-0-|3-0-0-3-0---3-0-|3-0-0-3-0---3-0-|

 |   |   |   |    |   |   |   |    |   |   |   |    |   |   |   |    
|----------------|----------------|----------------|----------------|
|----------------|----------------|----------------|----------------|
|----------------|----------------|----------------|----------------|
|3-0-0-3-0-0-0-0-|3-0-0-3-0-0-0-0-|3-0-0-3-0---3-0-|3-0-0-3-0---3-0-|

 |   |   |   |    |   |   |   |    |   |   |   |    |   |   |   |    
|----------------|----------------|----------------|----------------|
|----------------|----------------|----------------|----------------|
|3-3-3-3-3-3-3-3-|3-3-3-3-3-3-3-3-|5-5-5-5-5-5-5-5-|5---------------|
|----------------|----------------|----------------|----------------|

 |   |   |   |    |   |   |   |    |   |   |   |    |   |   |   |    
|----------------|----------------|----------------|----------------|
|----------------|----------------|----------------|----------------|
|----------------|----------------|----------------|----------------|
|3-0-0-3-0---3-0-|3-0-0-3-0---3-0-|3-0-0-3-0---3-0-|3-0-0-3-0---3-0-|

 |   |   |   |    |   |   |   |    |   |   |   |    |   |   |   |    
|----------------|----------------|----------------|----------------|
|----------------|----------------|----------------|----------------|
|0-0-0-0-0-0-0-0-|0-0-0-0-0-0-0-0-|0-0-0-0-0-0-0-0-|0-0-0-0-0-0-0-0-|
|----------------|----------------|----------------|----------------|

 |   |   |   |    |   |   |   |    |   |   |   |    |   |   |   |    
|----------------|----------------|----------------|----------------|
|----------------|----------------|----------------|----------------|
|2-2-2-2-2-2-2-2-|2-2-2-2-2-2-2-2-|2-2-2-2-2-2-2-2-|5-2-2-5-2-2-5-2-|
|----------------|----------------|----------------|----------------|

 |   |   |   |    |   |   |   |    |   |   |   |    |   |   |   |    
|----------------|----------------|----------------|----------------|
|----------------|----------------|----------------|----------------|
|----------------|----------------|----------------|----------------|
|3-0-0-3-0---3-0-|3-0-0-3-0---3-0-|3-0-0-3-0---3-0-|3-0-0-3-0---3-0-|

 |   |   |   |    |   |   |   |    |   |   |   |    |   |   |   |    
|----------------|----------------|----------------|----------------|
|----------------|----------------|----------------|----------------|
|----------------|----------------|----------------|----------------|
|3-0-0-3-0---3-0-|3-0-0-3-0---3-0-|3-0-0-3-0---3-0-|3-0-0-3-0---3-0-|
[ Tab from: http://www.guitartabs.cc/tabs/t/tankcsapda/fordulj_fel_btab.html ]
 |   |   |   |    |   |   |   |    |   |   |   |    |   |   |   |    
|----------------|----------------|----------------|----------------|
|----------------|----------------|----------------|----------------|
|0-0-0-0-0-0-0-0-|0-0-0-0-0-0-0-0-|0-0-0-0-0-0-0-0-|0-0-0-0-0-0-0-0-|
|----------------|----------------|----------------|----------------|

 |   |   |   |    |   |   |   |    |   |   |   |    |   |   |   |    
|----------------|----------------|----------------|----------------|
|----------------|----------------|----------------|----------------|
|2-2-2-2-2-2-2-2-|2-2-2-2-2-2-2-2-|2-2-2-2-2-2-2-2-|5-2-2-5-2-2-5-2-|
|----------------|----------------|----------------|----------------|

 |   |   |   |    |   |   |   |    |   |   |   |    |   |   |   |    
|----------------|----------------|----------------|----------------|
|----------------|----------------|----------------|----------------|
|----------------|----------------|----------------|----------------|
|3-0-0-3-0-0-0-0-|3-0-0-3-0-0-0-0-|3-0-0-3-0-0-0-0-|3-0-0-3-0-0-0-0-|

 |   |   |   |    |   |   |   |    |   |   |   |    |   |   |   |    
|----------------|----------------|----------------|----------------|
|----------------|----------------|----------------|----------------|
|----------------|----------------|----------------|----------------|
|3-0-0-3-0-0-0-0-|3-0-0-3-0-0-0-0-|3-0-0-3-0-0-0-0-|3-0-0-3-0-0-0-0-|

 |   |   |   |    |   |   |   |    |   |   |   |    |   |   |   |    
|----------------|----------------|----------------|----------------|
|----------------|----------------|----------------|----------------|
|----------------|----------------|----------------|----------------|
|3-0-0-3-0-0-0-0-|3-0-0-3-0-0-0-0-|3-0-0-3-0-0-0-0-|3-0-0-3-0-0-0-0-|

 |   |   |   |    |   |   |   |    |   |   |   |    |   |   |   |    
|----------------|----------------|----------------|----------------|
|----------------|----------------|----------------|----------------|
|----------------|----------------|----------------|----------------|
|3-0-0-3-0-0-0-0-|3-0-0-3-0-0-0-0-|3-0-0-3-0-0-0-0-|3-0-0-3-0-0-0-0-|

 |   |   |   |    |   |   |   |    |   |   |   |    |   |   |   |    
|----------------|----------------|----------------|----------------|
|----------------|----------------|----------------|----------------|
|----------------|----------------|----------------|----------------|
|3-0-0-3-0-0-0-0-|3-0-0-3-0-0-0-0-|3-0-0-3-0-0-0-0-|3-0-0-3-0-0-0-0-|

 |   |   |   |    |   |   |   |    |   |   |   |    |   |   |   |    
|----------------|----------------|----------------|----------------|
|----------------|----------------|----------------|----------------|
|----------------|----------------|----------------|----------------|
|3-0-0-3-0-0-3-0-|3-0-0-3-0-------|3-0-0-3-0-0-3-0-|3-0-0-3-0-------|

 |   |   |   |    |   |   |   |    |   |   |   |    |   |   |   |    
|----------------|----------------|----------------|----------------|
|----------------|----------------|----------------|----------------|
|----------------|----------------|----------------|----------------|
|3-0-0-3-0-0-3-0-|3-0-0-3-0-------|3-0-0-3-0-0-3-0-|3-0-0-3---------|

 |   |   |   |    |   |   |   |    |   |   |   |    |   |   |   |    
|----------------|----------------|----------------|----------------|
|----------------|----------------|----------------|----------------|
|5-2-2-5-2-2-5-2-|5-2-2-5-2-2-5-2-|5-2-2-5-2-2-5-2-|5-2-2-5-2-2-0---|
|----------------|----------------|----------------|----------------|

 |   |   |   |    |   |   |   |    |   |   |   |    |   |   |   |    
|----------------|----------------|----------------|----------------|
|----------------|----------------|----------------|----------------|
|----------------|----------------|----------------|----------------|
|3-0-0-3-0---3-0-|3-0-0-3-0---3-0-|3-0-0-3-0---3-0-|3-0-0-3-0---3-0-|

 |   |   |   |    |   |   |   |    |   |   |   |    |   |   |   |    
|----------------|----------------|----------------|----------------|
|----------------|----------------|----------------|----------------|
|----------------|----------------|----------------|----------------|
|3-0-0-3-0---3-0-|3-0-0-3-0---3-0-|3-0-0-3-0---3-0-|3-0-0-3-0---3-0-|

 |   |   |   |    |   |   |   |    |   |   |   |    |   |   |   |    
|----------------|----------------|----------------|----------------|
|----------------|----------------|----------------|----------------|
|3-3-3-3-3-3-3-3-|3-3-3-3-3-3-3-3-|5-5-5-5-5-5-5-5-|5-5-5-5-5-5-5-5-|
|----------------|----------------|----------------|----------------|

 |   |   |   |    |   |   |   |    |   |   |   |    |   |   |   |    
|----------------|----------------|----------------|----------------|
|----------------|----------------|----------------|----------------|
|----------------|----------------|----------------|----------------|
|3-0-0-3-0---3-0-|3-0-0-3-0---3-0-|3-0-0-3-0---3-0-|3-0-0-3-0---3-0-|

 |   |   |   |    |   |   |   |    |   |   |   |    |   |   |   |    
|----------------|----------------|----------------|----------------|
|----------------|----------------|----------------|----------------|
|3-3-3-3-3-3-3-3-|3-3-3-3-3-3-3-3-|5-5-5-5-5-5-5-5-|5-5-5-5-5-5-5-5-|
|----------------|----------------|----------------|----------------|

 |   |   |   |    |   |   |   |    |   |   |   |    |   |   |   |    
|----------------|----------------|----------------|----------------|
|----------------|----------------|----------------|----------------|
|3-3-3-3-3-3-3-3-|3-3-3-3-3-3-3-3-|5-5-5-5-5-5-5-5-|5---------------|
|----------------|----------------|----------------|----------------|

 |   |   |   |    |   |   |   |    |   |   |   |    |   |   |   |    
|----------------|----------------|----------------|----------------|
|----------------|----------------|----------------|----------------|
|----------------|----------------|----------------|----------------|
|0---------------|----------------|----------------|----------------|

 |   |   |   |    |   |   |   |    
|----------------|----------------|
|----------------|----------------|
|----------------|----------------|
|----------------|----------------|


Created with TablEdit http://www.tabledit.com/
Comments