Tamia - Officially Missing You Chords & Tabs

 

Officially Missing You Chords & Tabs

Tamia Chords & Tabs

Version: 7 Type: Tab 0 ratings
1 star 2 stars 3 stars 4 stars 5 stars
comments

Officially Missing You Tab

Officially Missing You

Intro:verse

E---3-3----------|---3-3----3---|
B---3-3-3----2-4-|---3-3----3-0-|
G-------0----2-4-|------------0-|
D----------------|--------------|
A--------------2-|--------------|
E-3---3----2-----|-0---0--3---3-|
All I hear is raindrops falling on the rooftopOh baby, tell me why'd you have to go

(2ND VERSE)                                                       (2ND VERSE)
Abducted from this heartache, I could escape But I've heard it long enough to know 

E--3--0-----2h3-|---3-3----3-2-|
B--3--0----3-3--|----1-1---3-3-|
G---------------|--------------|
D---------------|--------0-----|
A-3--3---32-----|-0---0--------|
E-------------0-|--------------|
'Cause this pain I feel it won't go away And today I'm officially missin' you
[ Tab from: http://www.guitartabs.cc/tabs/t/tamia/officially_missing_you_tab_ver_7.html ]
Refrain:
E---3-3--2-2---3-3-------|
B---3-3--2-3---3-3---3-0-|
G--------------------0-0-|
D------------------------|
A---------2--------------|
E-3--3--2-----0--0--3--3-|
Ooh...can't nobody do it like you. Said every little thing you do, hey, baby 

E--3--0-----2h3-|---3-3----3-2-
B--3--0-----3-3-|---3-1----3-3-
G---------------|--------------
D---------------|--------0-----
A-3--3---32-----|-0---0--------
E-------------0-|--------------
hey, baby  Sid it stays on my mind 
And I-I'm officially



Bridge:
E-3-------|-------------
B-1--0--3-|-3-3-3--3\0--
G-0--0--0-|-0-0-0--0\0--
D-2--2--0-|-2-0-0--0\2--
A-0--2--2-|-3-2-2--2\2--
E----0--3-|-----3--3\0--
Well, I thought I could just get over you, baby 
But I see there's something I just can't do 
E------------|-3--3-3--
B-1-3--1\-/3-|-3--3-3--
G-0-0--0\0/0-|-0-------
D-2-0--2\0/2-|-2--0-0--
A-0-2--0\2/2-|-3-------
E--------3---|---------
Well, I thought I could just get over you, baby 
But I see there's something I just can't do 

Job3r1x_6
I enjoy playing this music. Hope you enjoy too.
Comments