Tamia - Officially Missing You Chords & Tabs

 

Officially Missing You Chords & Tabs

Tamia Chords & Tabs

Version: 6 Type: Tab 0 ratings
1 star 2 stars 3 stars 4 stars 5 stars
comments

Officially Missing You Tab

   
Song: Offically Missing You
Artist: Tamia
Tabber: Carl Martin Ortega
Intro

Bm/G A/F# B7 G5/E Am7 Em/G


T T
|---------------|---------------|---3-x-3----3--|---0-x-0---------3(15)--|
|---3-x-3----3--|---2-x-4----4--|---3-x-3--3----|---1-x-0---3(15)--------|
|---4-x-4-------|---2-x-2--2----|---0-x-0-------|------------------------|
|---4-x-4--4----|---2-x---------|---------------|-0----------------------|
|---------------|-------2-------|---------------|------------------------|
|-3-------------|-2-------------|-0-0-----------|-------3--(3)-----------|


E5/C G5/D D/B G5/E Am7 G5/D
|---0-x-0----3--|---2-x-2h=3-----3--|---0-x-0----0--|---3-3----||
|---0-x-0--3----|---3-x-0-(0)--0----|---1-x-1--1----|---3-3----||
|---------------|-------------------|---------------|----------||
|---------------|-------2-(2)-------|---------------|-0--------||
|-3-------------|-2-----------------|-0-------------|----------||
|---------------|-------------------|---------------|----------||


Verses 1, 2
Bm/G A/F# B7 G5/E Am7 Em/G
T T
|---------------|---------------|---3-x-3----3--|---0-x-0---------3(15)--|
|---3-x-3----3--|---2-x-4----4--|---3-x-3--3----|---1-x-0---3(15)--------|
|---4-x-4-------|---2-x-2--2----|---0-x-0-------|------------------------|
|---4-x-4--4----|---2-x---------|---------------|-0----------------------|
|---------------|-------2-------|---------------|------------------------|
|-3-------------|-2-------------|-0-------------|-------3--(3)-----------|


E5/C G5/D D/B G/E Am7 G5/D
|---0-x-0----3--|---2-x-2h=3-----3--|---0-x-0----0--|---3-3----|
|---0-x-0--3----|---3-x-0-(0)--0----|---1-x-1--1----|---3-3----|
|---------------|-------------------|---------------|----------|
|---------------|-------2-(2)-------|---------------|-0--------|
|-3-------------|-2-----------------|-0-------------|----------|
|---------------|-------------------|---------------|----------|


Bm/G A/F# B7 G5/E Am7 Em/G
T T
|---------------|---------------|---3-x-3----3--|---0-x-0---------3(15)--|
|---3-x-3----3--|---2-x-4----4--|---3-x-3--3----|---1-x-0---3(15)--------|
|---4-x-4-------|---2-x-2--2----|---0-x-0-------|------------------------|
|---4-x-4--4----|---2-x---------|---------------|-0----------------------|
|---------------|-------2-------|---------------|------------------------|
|-3-------------|-2-------------|-0-------------|-------3--(3)-----------|


E5/C G5/D D/B G/E Am7 G5/D
|---0-x-0----3--|---2-x-2h=3-----3--|---0-x-0----0--|---3-3----|
|---0-x-0--3----|---3-x-0-(0)--0----|---1-x-1--1----|---3-3----|
|---------------|-------------------|---------------|----------|
|---------------|-------2-(2)-------|---------------|-0--------|
|-3-------------|-2-----------------|-0-------------|----------|
|---------------|-------------------|---------------|----------|


Chorus
Bm/G A/F# B7 G5/E Am7 Em/G
T T
|---------------|---------------|---3-x-3----3--|---0-x-0---------3(15)--|
|---3-x-3----3--|---2-x-4----4--|---3-x-3--3----|---1-x-0---3(15)--------|
|---4-x-4-------|---2-x-2--2----|---0-x-0-------|------------------------|
|---4-x-4--4----|---2-x---------|---------------|-0----------------------|
|---------------|-------2-------|---------------|------------------------|
|-3-------------|-2-------------|-0-------------|-------3--(3)-----------|


E5/C G5/D D/B G/E Am7 G5/D
|---0-x-0----3--|---2-x-2h=3-----3--|---0-x-0----0--|---3-3----|
|---0-x-0--3----|---3-x-0-(0)--0----|---1-x-1--1----|---3-3----|
|---------------|-------------------|---------------|----------|
|---------------|-------2-(2)-------|---------------|-0--------|
|-3-------------|-2-----------------|-0-------------|----------|
|---------------|-------------------|---------------|----------|


Verse 3
Bm/G A/F# B7 G5/E Am7 Em/G
T T
|---------------|---------------|---3-x-3----3--|---0-x-0---------3(15)--|
|---3-x-3----3--|---2-x-4----4--|---3-x-3--3----|---1-x-0---3(15)--------|
|---4-x-4-------|---2-x-2--2----|---0-x-0-------|------------------------|
|---4-x-4--4----|---2-x---------|---------------|-0----------------------|
|---------------|-------2-------|---------------|------------------------|
|-3-------------|-2-------------|-0-------------|-------3--(3)-----------|

[ Tab from: http://www.guitartabs.cc/tabs/t/tamia/officially_missing_you_tab_ver_6.html ]
E5/C G5/D D/B G/E Am7 B
|---0-x-0----3--|---2-x-2h=3-----3--|---0-x-0----0--|---2-2----|
|---0-x-0--3----|---3-x-0-(0)--0----|---1-x-1--1----|---4-4----|
|---------------|-------------------|---------------|----------|
|---------------|-------2-(2)-------|---------------|----------|
|-3-------------|-2-----------------|-0-------------|-2--------|
|---------------|-------------------|---------------|----------|


Bridge
E5/C Bm7 G5/E D
PM| PM| PM| PM
|-----0-(0)------|---------------|---3-x-3---x---|---2---(2)------|
|-----0-(0)------|---3-x-3-------|---3-x-3-----x-|---3---(3)--x---|
|----------------|---2-x-2---x---|---------------|---2----------x-|
|----------------|---------------|-2-------------|-0--------------|
|-3----------x-x-|-2-----2-----x-|---------------|----------------|
|----------------|---------------|---------------|----------------|


E5/C D/B G/E Am7 G5/D
PM| PM-----|
|---0-x-0-------|---2-x-2h=3--------|---0--x--------|--3-3----||
|---0-x-0-------|---3-x-0-(0)---x---|---1----x------|--3-3----||
|---------------|-------------------|---------------|---------||
|-----------x-x-|-------2-(2)-----x-|-----------x-x-|--0-0----||
|-3-------------|-2-----------------|-0-------------|---------||
|---------------|-------------------|---------------|---------||


Chorus
Bm/G A/F# B7 G5/E Am7 Em/G
T T
|---------------|---------------|---3-x-3----3--|---0-x-0---------3(15)--|
|---3-x-3----3--|---2-x-4----4--|---3-x-3--3----|---1-x-0---3(15)--------|
|---4-x-4-------|---2-x-2--2----|---0-x-0-------|------------------------|
|---4-x-4--4----|---2-x---------|---------------|-0----------------------|
|---------------|-------2-------|---------------|------------------------|
|-3-------------|-2-------------|-0-------------|-------3--(3)-----------|


E5/C G5/D D/B G/E Am7 G5/D
|---0-x-0----3--|---2-x-2h=3-----3--|---0-x-0----0--|---3-3----|
|---0-x-0--3----|---3-x-0-(0)--0----|---1-x-1--1----|---3-3----|
|---------------|-------------------|---------------|----------|
|---------------|-------2-(2)-------|---------------|-0--------|
|-3-------------|-2-----------------|-0-------------|----------|
|---------------|-------------------|---------------|----------|


Out-Chorus
F G C F G C
|-^1----^3----|-^0--------|-^1----^3----|-^3------3------|
|-^1----^3----|-^1--------|-^1----^3----|-^5----5---5----|
|-^2----^4----|-^0--------|-^2----^4----|-^5--5-------5--|
|-^3----^5----|-^2--------|-^3----^5----|-^5-------------|
|-^3----^5----|-^3--------|-^3----^5----|-^3-------------|
|-^1----^3----|-----------|-^1----^3----|----------------|


C D Em D C C G5/D
|-^0----^2----|-^0--^2--^3----|-(3)--------|-^3--------3---|---3-3----|
|-^1----^3----|-^0--^3--^5----|-(5)--------|-^5---5------5-|---3-3----|
|-^0----^2----|-^0--^2--^5----|-(5)--------|-^5-----5------|----------|
|-^2----^0----|-^2--^0--^5----|-(5)--------|-^5------------|-x-0-0----|
|-^3----------|-^2------^3----|-(3)--------|-^3------------|----------|
|-------------|-^0------------|------------|---------------|----------|


Chorus
Bm/G A/F# G5/E Am7 Em/G
T T
|---------------|---------------|---3-x-3----3--|---0-x-0---------3(15)--|
|---3-x-3----3--|---2-x-4----4--|---3-x-3--3----|---1-x-0---3(15)--------|
|---4-x-4-------|---2-x-2--2----|---0-x-0-------|------------------------|
|---4-x-4--4----|---2-x---------|---------------|-0----------------------|
|---------------|-------2-------|---------------|------------------------|
|-3-------------|-2-------------|-0-------------|-------3--(3)-----------|


E5/C G5/D D/B G/E Am7 G5/D
|---0-x-0----3--|---2-x-2h=3-----3--|---0-x-0----0--|---3-3----|
|---0-x-0--3----|---3-x-0-(0)--0----|---1-x-1--1----|---3-3----|
|---------------|-------------------|---------------|----------|
|---------------|-------2-(2)-------|---------------|-0--------|
|-3-------------|-2-----------------|-0-------------|----------|
|---------------|-------------------|---------------|----------|


Outro
Bm/G A/F# B7 G5/E Am7 Em/G
T T
|---------------|---------------|---3-x-3----3--|---0-x-0---------3(15)--|
|---3-x-3----3--|---2-x-4----4--|---3-x-3--3----|---1-x-0---3(15)--------|
|---4-x-4-------|---2-x-2--2----|---0-x-0-------|------------------------|
|---4-x-4--4----|---2-x---------|---------------|-0----------------------|
|---------------|-------2-------|---------------|------------------------|
|-3-------------|-2-------------|-0-------------|-------3--(3)-----------|


E5/C G5/D D/B G/E Am7 G5/D
|---0-x-0----3--|---2-x-2h=3-----3--|---0-x-0----0--|---3-3----*|
|---0-x-0--3----|---3-x-0-(0)--0----|---1-x-1--1----|---3-3----*|
|---------------|-------------------|---------------|----------*|
|---------------|-------2-(2)-------|---------------|-0--------*|
|-3-------------|-2-----------------|-0-------------|----------*|
|---------------|-------------------|---------------|----------*|
Comments