Tamia - Officially Missing You Chords & Tabs

 

Officially Missing You Chords & Tabs

Tamia Chords & Tabs

Version: 3 Type: Tab 1 rating
1 star 2 stars 3 stars 4 stars 5 stars
comments

Officially Missing You Tab

OFFICIALLY MISSING YOu
Tamia

johnsantos_17@yahoo.com

standard tuning: (EADGBE)

Intro:

E----------------|---3-3----0---|
B---3-3-3----2-4-|---3-3----3-0-|
G---4-4-0----2-2-|------------0-|
D----------------|--------------|
A--------------2-|--------------|
E-3---3----2-----|-0---0--3---3-|

E--3--0-----2h3-|---3-3----3-3-
B--3--0-----3-3-|---1-1----3-3-
G---------------|--------------
D---------------|--------0-----
A-3--3---32-----|-0---0--------
E-------------0-|--------------

Verse:

E----------------|---3-3----0---|
B---3-3-3----2-4-|---3-3----3-0-|
G---4-4-0----2-2-|------------0-|
D----------------|--------------|
A--------------2-|--------------|
E-3---3----2-----|-0---0--3---3-|
[ Tab from: http://www.guitartabs.cc/tabs/t/tamia/officially_missing_you_tab_ver_3.html ]
E--3--0-----2h3-|---3-3----3-3-
B--3--0-----3-3-|---1-1----3-3-
G---------------|--------------
D---------------|--------0-----
A-3--3---32-----|-0---0--------
E-------------0-|--------------

Refrain:

E---3-3--3-2---3-3-------|
B---3-3--3-3---3-3---3-0-|
G--------------------0-0-|
D------------------------|
A-3---3-2--2-------------|
E-------------0--0--3--3-|

E--3--0-----2h3-|---3-3----3-3-
B--3--0-----3-3-|---1-1----3-3-
G---------------|--------------
D---------------|--------0-----
A-3--3---32-----|-0---0--------
E-------------0-|--------------

Bridge:

E-3-------|-------------
B-1--0--3-|-3-3-3--3\0--
G-0--0--0-|-0-0-0--0\0--
D-2--2--0-|-2-0-0--0\2--
A-0--2--2-|-3-2-2--2\2--
E----0--3-|-----3--3\0--

E------------|-3--3-3--
B-1-3--1\-/3-|-3--3-3--
G-0-0--0\0/0-|-0-------
D-2-0--2\0/2-|-2--0-0--
A-0-2--0\2/2-|-3-------
E--------3---|---------

=====()w&_17=====
Comments