Tamia - Officially Missing You Chords & Tabs

 

Officially Missing You Chords & Tabs

Tamia Chords & Tabs

Version: 1 Type: Tab 0 ratings
1 star 2 stars 3 stars 4 stars 5 stars
comments

Officially Missing You Tab

   
Tamia "Officially Missing You"
Tabbed by Lingo (in exchange for Eeyor from Tammy)

[Intro] Same as Verse 1 and Chorus

    G     F#m     B7     Em7     Am
-------------------------3-3-----0-0------
----3-3----2------4------3-3-----1-1------
----4-4----2------2-----------------------
------------------------------------------
------------------2------------0----------
--3------2-------------0------------------

    Am      D   Dsus    Am             Dsus
----0-0------2--2/3-----0-0----0-------3--3-
----1-1------3--3-------1-1----1-------3--3-
---------------------------------2----------
-----------0-------------------------0-0--0-
--0-------------------0------0--------------
--------------------------------------------


[Verse 2] Same up until "Now I don't even know you at all..."
[ Tab from: http://www.guitartabs.cc/tabs/t/tamia/officially_missing_you_tab.html ]
Don't know you at all
              B       Em      G            Em
          ------------0-0--------------------0-----
          ----4-4-----0-0----3-3----3-3------0-----
          ----4-4------------4-4----4-4------0-----
          -----------------------------------------
          --2--------------------------------------
          ----------0------3------3-------0--------

I guess it's safe to say
              C     D  Dsus   Am
          ----3-3----2-2/3----0------3--3----------
          ----5-5----3-3------1------3--3----------
          -----------------------------------------
          ---------0----------2---0--0--0----------
          --3--------------------------------------
          -----------------------------------------

[Bridge} Strummed

Well I thought...
       F       C
     --1---1---3---  (2x)
     --1---1---5---
     --2---2---5---
     --3---3---5---
     --3---3---3---
     --1---1-------  

From the way...
       C   D   Em  D   C 
     --3---5-------5---3---
     --5---7---8---7---5---
     --5---7---9---7---5---
     --5---7---9---7---5---
     --3---5---7---5---3---
     ----------------------

I just can't...
       C
     --------3------3-3----
     --5------------5-5----
     --5--------5----------
     -----5----------------
     --3------------3-3----
     ----------------------
Comments