Tally Hall - Two Wuv Chords & Tabs

 

Two Wuv Chords & Tabs

Tally Hall Chords & Tabs

Version: 1 Type: Bass Tab 0 ratings
1 star 2 stars 3 stars 4 stars 5 stars
comments

Two Wuv Bass Tab

   
-------------------------------------------------------------------------------
			     TWO WUV - Tally Hall
-------------------------------------------------------------------------------

Tabbed By : scotty
e-mail: seckenth@pingry.org
[ Tab from: http://www.guitartabs.cc/tabs/t/tally_hall/two_wuv_btab.html ]
(http://www.indie911.com/tally-hall)
Since its coagulation in late 2002, Tally Hall has been wonkifying unsuspecting
audiences from Ann Arbor to places other than Ann Arbor. They have performed at a
plethora of venues, including the legendary Blind Pig (Nirvana's old favorite) and
the nationally syndicated Mitch Albom Show. They enjoy harvesting ideas from the
Teenage Mutant Ninja Turtles. 
this might not be the whole song, but its the main parts, so whatever

Tuning: standudd

fast part
G|---------------------------------|
D|---------------------------------|
A|-0-0-3-4-5-5-4-3-----1-2-3-3-2-1-|
E|-----------------3-3-------------|

slow part
G|----------------------|
D|----------------------|
A|-0-0-5-5------3-3-3-3-|
E|---------3-3-3-3------|

wow tally hall is incredible

and then there's this
| /  slide up
| \  slide down
| h  hammer-on
| p  pull-off
| ~  vibrato
| +  harmonic
| x  Mute note
===============================================================================
Comments