Talking Heads - Psycho Killer Chords & Tabs

 

Psycho Killer Chords & Tabs

Talking Heads Chords & Tabs

Version: 1 Type: Tab 0 ratings
1 star 2 stars 3 stars 4 stars 5 stars
comments

Psycho Killer Tab

   
Talking heads - Psycho killer

h = harmonics
e|-----------h12----------------------------
B|----h12---h12---------------------------------
D|---h12---h12----------------------------------
G|--h12---h12---------------------------------
A|-h12---------------------------------------
E|----------------------------------------

listen to the song for the timing
[ Tab from: http://www.guitartabs.cc/tabs/t/talking_heads/psycho_killer_tab.html ]
1st or 2nd guitar
e|-9--9--9--9--9--9---9--9--9--9--9---8--8--8--8--8--8--
B|-10-10-10-10-10-10--10-10-10-10-10--10-10-10-10-10-10-
D|-9--9--9--9--9--9---9--9--9--9--9---11-11-11-11-11-11-
G|------------------------------------------------------
A|------------------------------------------------------
E|------------------------------------------------------

the other guitar
e|---------5---5-----5---
B|---------5---5-----5---
D|---4-6-6-6-6-6-6-6-6-6-
G|---5-7-7-7-7-7-7-7-7-7-
A|---5-7-7---7---7-7---7-
E|-0-3-5-5---5---5-5---5-

I can't seem to face...
e|----------------------
B|---5---5---5----------
D|--6-6-6-6-6-6-----4-6-
G|(7)--7---7---7----5-7-
A|------------------5-7-
E|----------------0-3-5-

I think you'll be able to find the lyrics and le repos elsewhere.

tabbed by dION (kantongerecht@hotmail.com)
Comments