Talking Heads - Psycho Killer Chords & Tabs

 

Psycho Killer Chords & Tabs

Talking Heads Chords & Tabs

Version: 3 Type: Bass Tab 0 ratings
1 star 2 stars 3 stars 4 stars 5 stars
comments

Psycho Killer Bass Tab

|-----------------|
|-----------------|
|5-5-5-5-5-5-5-0-3|
|-----------------|

|-----------|
|-----------|
|1-----3----|
|--3-1---5-3|

|-------------------|
|-------------------|
|5-53-5-35-3-53-0-35|
|-------------------|

|-----------|
|-----------|
|1-----3----|
|--3-1---5-3|

|-----------------|
|-----------------|
|-----------------|
|1-10-1-01-0-10-11|
[ Tab from: http://www.guitartabs.cc/tabs/t/talking_heads/psycho_killer_btab_ver_3.html ]
|-----------------|
|-----------------|
|5-5-5-5-5-5-5-0-3|
|-----------------|

|-----------|
|-----------|
|1-----3----|
|--3-1---5-3|

|-------------------|
|-------------------|
|5-53-5-35-3-53-0-35|
|-------------------|

|-----------|
|-----------|
|1-----3----|
|--3-1---5-3|

|-----------------|
|-----------------|
|-----------------|
|1-10-1-01-0-10-11|
[ Tab from: http://www.guitartabs.cc/tabs/t/talking_heads/psycho_killer_btab_ver_3.html ]
If i made a mistake it was probably a typo
Comments