Talking Heads - Making Flippy Floppy Chords & Tabs

 

Making Flippy Floppy Chords & Tabs

Talking Heads Chords & Tabs

Version: 1 Type: Bass Tab 0 ratings
1 star 2 stars 3 stars 4 stars 5 stars
comments

Making Flippy Floppy Bass Tab

Song: "Making Flippy Floppy"
Artist: The Talking Heads
Album: "Speaking in Tongues"
Bassist: Tina Weymouth

Key: s=slap; p=pop; h=hammer on; 
/=slide up


Verse/Bridge:
[ Tab from: http://www.guitartabs.cc/tabs/t/talking_heads/making_flippy_floppy_btab.html ]
G:--------------------------------------
D:--------5--5------5--------5--5/6
A:-------------------------------------
E:-----3--------3-------0h3----------
        s p  p  s   p  s    p p


Chorus:

G:--------------------------------------
D:------3-2-3--------------2-3-5-0
A:--------------------0h5------------
E---3----------------------------------

That's about it; it gets quite funky, so enjoy.

tabbed by: The Landlord

Comments