Talking Heads - I Zimbra Chords & Tabs

 

Talking Heads Chords & Tabs

Version: 1 Type: Bass Tab 0 ratings
1 star 2 stars 3 stars 4 stars 5 stars
comments

I Zimbra Bass Tab

   
Artist: Talking Heads
Song: I Zimbra
Album: Fear of Music (1979)
Bassist: Tina Weymouth
Tuning: E-A-D-G

Whole Song:
G|--------------------------------------------------------|
D|--------------------------------------------------------|
A|--------------------------------------------------------|
E|--1----------------1----------------1----------------1--|

G|--------------------------------------------------------|
D|-------------6---------------------------------6--------|
A|-----------6---------------------------------6----------|
E|--1----8-8---------1----------------1----8-8---------1--|

G|--------------------------------------------------------------|
D|-------------6---------------------------------6--------------|
A|-----------6---------------------------------6----------------|
E|--1----8-8---------1----7----------1----8-8---------1----7--| (x2)

G|--------13-13p10------------13-13p10---------13-13p10---------13-13p10--|
D|-------------------------6----------------6----------------6------------|
A|-----------------------6----------------6----------------6--------------|
E|--6----------------6h8--------------6h8--------------6h8----------------|

G|--------------------------------------------------------------|
D|-------------6---------------------------------6--------------|
A|-----------6---------------------------------6----------------|
E|--1----8-8---------1----7----------1----8-8---------1----7--| (x2)

G|--------------------------------------------------------|
D|--------------------------------------------------------|
A|--------------------------------------------------------|
E|--6----------------6----------------6----------------6--|

G|--------------------------------------------------------------|
D|-------------6---------------------------------6--------------|
A|-----------6---------------------------------6----------------|
E|--1----8-8---------1----7----------1----8-8---------1----7--| (x2)
[ Tab from: http://www.guitartabs.cc/tabs/t/talking_heads/i_zimbra_btab.html ]
G|--------------------------------------------------------|
D|--------------------------------------------------------|
A|--------------------------------------------------------|
E|--6----------------6----------------6----------------6--|

G|----------------------------------------------------------------|
D|----------------------------------------------------------------|
A|----------------------------------------------------------------|
E|--1-----10--------1-----10--------1-----10--------1-----10--|

G|--------------------------------------------------------------13-13p10--|
D|--------6----------------6----------------6----------------6------------|
A|------6----------------6----------------6----------------6--------------|
E|--6h8--------------6h8--------------6h8--------------6h8----------------|

G|--------------------------------------------------------|
D|--------------------------------------------------------|
A|--------------------------------------------------------|
E|--6----------------6----------------6----------------6--|

G|---------------------------------------------13-13p10---------13-13p10--|
D|--------6----------------6----------------6----------------6------------|
A|------6----------------6----------------6----------------6--------------|
E|--6h8--------------6h8--------------6h8--------------6h8----------------|

G|--------------------------------------------------------|
D|--------------------------------------------------------|
A|--------------------------------------------------------|
E|--6----------------6----------------6----------------6--|

G|--------------------------------------------------------------|
D|-------------6---------------------------------6--------------|
A|-----------6---------------------------------6----------------|
E|--1----8-8---------1----7----------1----8-8---------1----7--| (x2)


 Rest 


G|--------------------------------------------------------|
D|--------------------------------------------------------|
A|--------------------------------------------------------|
E|--1----------------1----------------1----------------1--| (x2)
Comments