Talent Billy - Try Honesty Chords & Tabs

 

Try Honesty Chords & Tabs

Talent Billy Chords & Tabs

Version: 1 Type: Bass Tab 0 ratings
1 star 2 stars 3 stars 4 stars 5 stars
comments

Try Honesty Bass Tab

DROP D TUNING!!

0:06 seconds before you start

G|-------------------------------------------------------------------------------------------------------------------------
D|---------------------------------------------------------------------------------------------------------------------------
A|--2-2---2-2-2-2-2------0-0---0-0-0-0-0------------------------------------------------------------------------
E|---------------------------------------------------------------x1 4--/0/--------------------------------------------------

G|--------------------------------------------------7-9----------------------------------------------------------------------
D|--------------------4-6-4------------------7---------------------------------------------------------------------------------
A|-----------0-4-----------------------5--------------------------------------------------------------------------------------
E|---4----------------------------------------------------------------------------------------------------------------------

G|--------------------------------------------------------------------------------------------------------------------------
D|-----------------4-6-4---------------------------------------------------------------------------------------------------
A|--------0-4----------------------------------------------------5------------------------------------------------------------
E|---4---------------------------------------------------0--4----------------------------------------------------------------

                         G|--------------------------------------------------------------------------------------------------------------------------
                         D|---------------------------------------------------------------------------------------------------------------------------
0:51 seconds             A|-2-2---2-2-2-2-2---0-0--0-0-0-0-0------------4-------------------2-------------------------------------------
                         E|----------------------------------------------4-4-4-----4-4-----2-2-2----2-2-------------------------------------- x2

                       G|--------------------------------------------------------------------------------------------------------------------------
bridge                 D|---------------------------------------------------------------------------------------------------------------------------
 2:05 seconds          A|--------------------------------------------------------------2-2-2-2----------------------------------------------------
                       E|--4-4-4-4-4---0-0-0-0-0---3-3-3-3-3---0-0-0-0---------------------------------------------------------------- x2
[ Tab from: http://www.guitartabs.cc/tabs/t/talent_billy/try_honesty_btab.html ]
                       G|--------------------------------------------------------------------------------------------------------------------------
    2:18               D|---------------------------------------------------------------------------------------------------------------------------
                       A|-------------0-------------------5----------------------------------------------------------------------------------------
                       E|--4-4-2-4-----4-2-0--0-0-------0------------------------------------------------------------------------------------

                       G|--------------------------------------------------------------------------------------------------------------------------
                       D|---------------------------------------------------------------------------------------------------------------------------
                       A|-------------------------------------2-2----------------------------------------------------------------------------------
                       E|--3-3---2-3---5-3-2---0--0-0-----------------------------------------------------------------------------------------


                      G|--------------------------------------------------------------------------------------------------------------------------
 2:39                 D|---------------------------------------------------------------------------------------------------------------------------
                      A|-------------------------------------------------------------------------------------------------------------------------
                      E|------3-3-3-3 x4----0-0-0-0-x4-----------------------------------------------------------------------------------


                      G|--------------------------------------------------------------------------------------------------------------------------
2:45                  D|-----2-slide--12----9---7--slide-9--------------------------------------------------------------------------------
                      A|---------------------------------------------------------------------------------------------------------------------------
                      E|-------------------------------------------------------------------------------------------------------------------------


                      G|--------------------------------------------------------------------------------------------------------------------------
                      D|-----9-9-9-9-9-9-9-9----7-7-7-7-7-7-7-7---4-4-4-4-4-4-4-4----2-2-2-2----4-4-4-4-------------------
                      A|-------------------------------------------------------------------------------------------------------------------------
                      E|-------------------------------------------------------------------------------------------------------------------------

                      G|-----------------4------------------2---------------------------------------------------------------------------------
  ending              D|------------4-------4----------2------2--------------4---------------2----------------------------------------------
                      A|-------2---------------------0---------------------4------4--------2-----2------------------------------------------
                      E|-------------------------------------------------4----------------2----------------------------------------------------
Comments