Talent Billy - This Is How It Goes Chords & Tabs

 

This Is How It Goes Chords & Tabs

Talent Billy Chords & Tabs

Version: 1 Type: Tab 1 rating
1 star 2 stars 3 stars 4 stars 5 stars
comments

This Is How It Goes Tab

   
BILLY TALENT - This is how it goes (album version)

'drop D tuning'


INTRO AND VERSE:

e|--------------------------------|
B|--------------------------------|
G|--------------------------------|	repeat this
D|------------------------22222233|
A|555555555555555544444444--------|
D|--------------------------------|

just before chorus, play these two chords:

BRIDGE:
e|----------|
B|----------|
G|2-22------|
D|2-22-3-33-|
A|0-00-3-33-|
D|-----3-33-|




CHORUS (and bit after intro):
[ Tab from: http://www.guitartabs.cc/tabs/t/talent_billy/this_is_how_it_goes_tab.html ]
e|-----5------10------5----------------------5------10------5------------------|
B|-----6------10------5----------------------6------10------5------------------|
G|-----7------10------5----------------------7------10------5------------------|
D|0-00-7-8-88----3-33-------------------0-00-7-8-88----3-33--------------------|  repeat this
A|0-00-5-8-88----3-33-------------3-----0-00-5-8-88----3-33-------------7-7-6-5|
D|0-00---8-88----3-33---7-7-5-6-7---5-3-0-00---8-88----3-33---7-7-5-6-7--------|

MIDDLE BIT:
I'll just show the chords here. The strumming pattern is 6 strums then 9, up and down.
Easy if you listen to the song.

e|-5--5--5--3--|
B|-6--6--6--1--|
G|-7--5--5--2--|
D|-7--9--8--0--|
A|-5--5--5-----|
D|-------------|

Listen to the song and piece it together and thats pretty much it. It goes

Intro 
Bridge
Chorus
Verse
Bridge
Chorus
Middle
Chorus

---Tabbed by Carter-----

Comments