Talent Billy - River Below Chords & Tabs

 

River Below Chords & Tabs

Talent Billy Chords & Tabs

Version: 1 Type: Tab 1 rating
1 star 2 stars 3 stars 4 stars 5 stars
comments

River Below Tab

   
#This file is the author's own work and represents their interpretation of the-#
#song. You may only use this file for private study, scholarship, or research.-#
#------------------------------------------------------------------------------#
#------------------------------------------------------------------------------#
Artist:Talent Billy
Song: The River Below

* This song is played in Drop D

Hi! This song Rocks So please enjoy Responsibly.
Here is a revision of this song, several other tabs are available but this one is much more accurate.
MAny Thanks to all those who made previous tabs of this Tune.
Tabbed BY: Todd Libman


Intro/Chorus Outro
E|---------------------------------|
B|---------3-----------------------|
G|-----3-------3---8-7-5-----------| X2
D|-5-5---5---5---5-------8-7-5-----|
A|-----------------------------7-8-|
D|---------------------------------|

Intro Riff/Chorus Outro Riff
E|---------------------------------|
B|---------------------------------|
G|---------------------------------| X2
D|-55-5-5-57-7-7-7-7---------------|
A|-55-5-5-55-5-5-5-5---------------|
D|-55-5-5-5------------------------|


[ Tab from: http://www.guitartabs.cc/tabs/t/talent_billy/river_below_tab.html ]
Verse Riff
E|--------------------|----------------------|
B|--------------------|----------------------|
G|--------------------|----------------------|
D|5-8-5-5-8-7-7-7-5-x3|-8-8-8-8-12-12-12-12--|
A|5---5-5---5-5-5-3---|-8-8-8-8-12-12-12-12--|
D|5---5-5-------------|-8-8-8-8-12-12-12-12--|


Prechorus:
E|---------------------------------|------------------------| 
B|-----5-------8-------------------|---5------8-------------|
G|-----5-------8-------5------8----|---5------8------5---7~-|
D|---5---5---8---8-----5------8----|--5--5---8--8----5---7~-|
A|-3-------6---------5---5---8--8--|-3------6------5---5-5~-|
D|-----------------5-------8------|--------------5---------|

Chorus
E|-----------------------------------------|
B|-----------------------------------------|
G|-----------------------------------------|
D|x5555555-x0000000-x1111111-x8888888------|
A|x5555555-x0000000-x1111111-x8888888------|
D|x5555555-x0000000-x1111111-x8888888------|

E|---------------------|
B|---------------------|
G|-5555----------------|
D|-5555-5555-0000-1111-|
A|-3333-5555-0000-1111-|
D|------5555-0000-1111-|


Bridge
E|--------------------|
B|---------3----------|
G|-----3-------3------| X2
D|-5-5---5---5---5--0-|
A|------------------0-|
D|------------------0-|

Bridge Riff
E|---------------------------------|
B|---------------------------------|
G|---------------------------------| X2
D|-55-5-5-5-7~---------------------|
A|-55-5-5-5-5~---------------------|
D|-55-5-5-5------------------------|
Comments