Talent Billy - Cut The Curtains Chords & Tabs

 

Cut The Curtains Chords & Tabs

Talent Billy Chords & Tabs

Version: 1 Type: Tab 1 rating
1 star 2 stars 3 stars 4 stars 5 stars
comments

Cut The Curtains Tab

BILLY TALENT - Cut The Curtains

==========================================================
Hey, look... Carter's got himself some competition!... 
P.S.  I knew Try Honesty First!!!
==========================================================

'drop D tuning'

This is the riff at the start.

{note: best played with distorion pedal}

[Intro] (heavy distortion)
e|------------------------------------------|
B|------------------------------------------|
G|------------------------------------------|
D|------------------------------------------|  Play 4 times
A|------------------------------------------| 
D|--0-0-5^--0-0-5^-0-5^--5-5-7--3-3^--3-3--|


[Verse 1] (clean)
e|--------------------------------|---------------------------|
B|--------------------------------|---------------------------|
G|----------------------3-2-------|----------------------3-2--|
D|--0---0-2-0----------------0h2--|------0-2-0----------------| Play 2 Times
A|--0---------3-0-----------------|------------3-0------------|
D|--0--------------5-3------------|--0--------------5-3-------|
Oh, My Girl, You're so............And now that Disco....old...
.....................let's buy back our sou______________ls...


[Verse 2] (heavy distrotion)
e|------------------------------------------|
B|------------------------------------------|
G|------------------------------------------|
D|------------------------------------------|  Play 3 times
A|------------------------------------------| 
D|--0-0-5^--0-0-5^-0-5^--5-5-7--3-3^--3-3--|
so, let's see yah, we've got...you and me...

[Chorus] (heavy distortion)
e|-------------------------------------------|
B|-------------------------------------------|
G|-------------------------------------------|
D|-------------------------------------------| Play 5 Times
A|-------------------------------------------| 
D|--0-0-5^--0-0-5^-0-5^--5-5-3--5-5-7-7-8-7--|
.....so, cleared, are we_________________?...
Cut The Curtains.............................


[Verse 3] (light distorted)
e|----------------------------------|----------------------------------|
B|----------------------------------|----------------------------------|
G|----------------------3-2---------|----------------------3-2---------|
D|------0-2-0----------------0-2-3--|------0-2-0----------------0-2-3--| Play 2 Times
A|------------3-0-------------------|------------3-0-------------------|
D|--0--------------5-3--------------|--0--------------5-3--------------|


[ Tab from: http://www.guitartabs.cc/tabs/t/talent_billy/cut_the_curtains_tab.html ]
[Verse 4] (clean)
e|--------------------------------|---------------------------|
B|--------------------------------|---------------------------|
G|----------------------3-2-------|----------------------3-2--|
D|------0-2-0----------------0h2--|------0-2-0----------------| Play 2 Times
A|------------3-0-----------------|------------3-0------------|
D|--0--------------5-3------------|--0--------------5-3-------|
......seems our wax wings................................one day...
.....................faith fades awa____________________y.....

[Play The Chorus A Few Times]


[Solo]
e|------5-------------------------|
B|--3-0---3--------2-/6--5-3-0-3--|
G|----------4-0-/4----------------|
D|--------------------------------|
A|--------------------------------|
D|--------------------------------|

Some freaky shit like that... I start it for ya, you finnish it...

[Play The Chorus A Few Times]



==========================================================
[Lyrichs]

Oh, my girl.
Your so hot when you walk you melt snow.
And now that disco has finally grown old,
Lets buy back our souls.

So, lets see.
Yah, we've got five bucks between you and me.
My mental dishes are finally clean.
So, cleared, are we?

Cut the Curtains.
The actors have gone home.
[Cut the Curtains The actors have gone home]
The intermission's a mission on it's own.
[intermission's a mission on it's own]

Now, here, seems our wax wings have melted away.
When we've only been here for one day.
My faith fades away.
So, don't be a grey cloud when there's none in the sky.
We've found there's no hidden treasure to find.
At least we tried.

Cut the Curtains.
The actors have gone home.
[Cut the Curtains The actors have gone home]
The intermission's a mission on it's own
[intermission's a mission on it's own]
So, dry the rain checks.
You can't put time on hold.
[dry the rain checks you can't put time on hold]
Grab your suitcase, we don't have time to fold.
[Grab your suitcase we don't have time to fold]


ooooooaahhh,
There is no doubt you throw your inbox out.
There is no doubt you throw your inbox out. Oh,
There is no doubt you throw your inbox out.
There is no doubt you throw your inbox-

-Cut the Curtains.
The actors have gone home.
[Cut the Curtains The actors have gone home]
The intermission's a mission on it's own
[intermission's a mission on it's own]
Yah, So, dry the rain checks.
You can't put time on hold.
[dry the rain checks you can't put time on hold]
Grab your suitcase, we don't have time to fold.
[Grab your suitcase we don't have time to fold]
I said, we don't have time to fold.


oooooooooaah
we don't have no time to fold.
said, we don't have no time to fold.
said, we don't have no time to fold.
said, we don't have no time to fold.
==========================================================



---Tabbed by ~br0dy st3wy~ first----

Comments