Tal Bachman - Shes So High Chords & Tabs

 

Shes So High Chords & Tabs

Tal Bachman Chords & Tabs

Version: 1 Type: Tab 0 ratings
1 star 2 stars 3 stars 4 stars 5 stars
comments

Shes So High Tab

   
#----------------------------------PLEASE NOTE---------------------------------#
#This file is the author's own work and represents their interpretation of the #
#song. You may only use this file for private study, scholarship, or research. #
#------------------------------------------------------------------------------#
#

She's So High - from Tal Bachman's self-titled debut album
tabbed by Poddy(poddy@internex.net.au)
[ Tab from: http://www.guitartabs.cc/tabs/t/tal_bachman/shes_so_high_tab.html ]
Intro and verse (mute with palm and repeat over and over)
E|--------------------------------------------------------
B|--------------------------------------------------------
G|-3-3-3-3-3-3-3-3-3-3-3-3-3-3-3-3------------
D|---------5-5-5-5-3-3-3-3-1-1-1-1------------
A|--------------------------------------------------------
E|--------------------------------------------------------

E|------------6----------------------------------------------
B|------------8-----------------------------------------------
G|---0-2-3-2--8---3-3-3-3-3-3-3-3-3-3-3-3-3-3-3-3-
D|-3----------8-----------5-5-5-5-3-3-3-3-1-1-1-1-
A|------------6-----------------------------------------------
E|----------------------------------------------------------------

then chords A# F to build into chorus

CHORUS is C#m D# A# F repeat

Then verses are chords A# F D# repeat
Comments