Taking Back Sunday - Youre So Last Summer Chords & Tabs

 

Youre So Last Summer Chords & Tabs

Taking Back Sunday Chords & Tabs

Version: 4 Type: Tab 0 ratings
1 star 2 stars 3 stars 4 stars 5 stars
comments

Youre So Last Summer Tab

======================================@
You're So Last Summer		      @
Taking Back Sunday		      @
Guitars 1 + 2 			      @
======================================@
tabbed by CaNAdIu(\/) 		      @
canadium@hotmail.com                  @
======================================@
key				      @
---				      @
~ - let ring			      @
h - hammer on			      @
p - pull off                          @
/ - slide (\ is slide down)	      @
+ - harmonic                          @
x - mute note                         @
     				      @
======================================@

i tabbed this out cuz i cant find any other fully correct
versions online. some of em didnt even recognize that 
there were even two guitars. *(-_-)

enjoi, and im pretty sure this is all right.  there are parts, like
during the bridge(gtr 1 part), that im not 100 % sure with, but just let me know
if ive done anything wrong or if u have any comments.  Thx!! ^_^

===========================
INTRO
===========================
GTR 2
e|-------------------
b|-------------------
g|--666777777777-----
d|--6667777777776----
a|--4445555555550----
e|------------------- x4
pm..************..*..

============================================================================
VERSE
============================================================================
GUITAR 1(LEAD)
listen to the song to figure out where u play this
e|-----------------------------
b|--10p0-7p0---7~--------------
g|-----------9-----------------
d|-----------------------------
a|-----------------------------
e|-----------------------------
then an octave higher --
e|--17--14---------------------
b|----12--12--17-15~-----------
g|-----------------------------
d|-----------------------------
a|-----------------------------
e|-----------------------------   {whole thing x2}

guitar 2
e|-------------------
b|-------------------
g|--666777777777-----
d|--666777777777--6--
a|--444555555555--0--
e|------------------- x2
pm..************..*..

e|---------------------
b|---------------------
g|--4444444444444444---
d|--4444444444444444---
a|--2222222222222222---
e|---------------------
pm..****************...
e|---------------------
b|---------------------
g|---------------------
d|--5555555555555555---
a|--5555555555555555---
e|--3333333333333333---
pm..****************... {whole thing x2}
 
REPEAT THE WHOLE GUITAR TAB TWICE
then the last time thru it play the 3-5-5 without palm mute.
listen to the song to see exactly how.
============================================================================
CHORUS
============================================================================
GUITAR 1(LEAD)
e|-----------------------------
b|-----------------------------
g|-77777777777664466-----------
d|-xxxxxxxxxxxxxxxxx-----------
a|-55555555555442244-----------
e|-----------------------------

e|----------------------------
b|----------------------------
g|------444444444-------------
d|-44444444444444-------------
a|-44444222222222-------------
e|-22222----------------------
[ Tab from: http://www.guitartabs.cc/tabs/t/taking_back_sunday/youre_so_last_summer_tab_ver_4.html ]


guitar 2
e|----------------------
b|----------------------
g|--777777777777777-----
d|--777777777777777-----
a|--555555555555555-----
e|----------------------

e|---------------------
b|---------------------
g|---------------------
d|--4444444444444444---
a|--4444444444444444---
e|--2222222222222222---

e|---------------------
b|---------------------
g|--4444444444444444---
d|--4444444444444444---
a|--2222222222222222---
e|---------------------

e|---------------------
b|---------------------
g|---------------------
d|--5555555555555555---
a|--5555555555555555---
e|--3333333333333333---

=================================================================================
VERSE 2
=================================================================================

No guitar 1 playing in this verse !!

then
====================================
CHORUS
====================================
then
====================================
BRIDGE
====================================
GUITAR 1(LEAD)
e|-----------------------------
b|--10p0-7p0---7~--------------
g|-----------9-----------------
d|-----------------------------
a|-----------------------------
e|-----------------------------

e|-----------------------------
b|--10p0-7p0--17--15-----------
g|-----------------------------
d|-----------------------------
a|-----------------------------
e|-----------------------------


e|--0--0--0--0----0--0--0--0---0--0--0--
b|--10-10-10-10---10-10-10-10--10-10-10-
g|--11-11-11-11---11-11-11-11--11-11-11-
d|--------------------------------------
a|--------------------------------------
e|--------------------------------------

GUITAR 2
e|--------------------
b|--------------------
g|--66666667777777----
d|--66666667777777----
a|--44400005555555----
e|-------------------- x2
pm..************..*..

e|--------------------
b|--------------------
g|--------------------
d|--4444--4444--444---
a|--4444--4444--444---
e|--2222--2222--222---

e|---------------------
b|---------------------
g|--4444--4444--444----
d|--4444--4444--444----
a|--2222--2222--222----
e|---------------------   {whole thing x2}

=============================================================
OUTRO
=============================================================
GUITAR 1(LEAD)
e|-----------------------------
b|-----------------------------
g|-77777779999991414141414-----
d|-xxxxxxxxxxxxxx-x-x-x-x------
a|-55555557777771212121212-----
e|-----------------------------

e|----------------------------------
b|----------------------------------
g|-141414141414141414121211119-9----
d|-x-x-x-x-x-x-x-x-x-x-x-x-x-x-x----
a|-12121212121212121210109-9-7-7----
e|---------------------------------- { whole thing x4 }

GUITAR 2

e|-----------------------------
b|-----------------------------
g|-7777777---------------------
d|-55555557777779999995555555--
a|-55555557777779999995555555--
e|--------5555557777773333333-- x4

Then as there is mostly just singing and bass--
GUITAR 1(LEAD)
play this whenever u feel like, just strum once and let ring

e|------
b|------
g|-14---
d|-x----
a|-12---
e|------

gtr 2
play a rhythm of these notes - 
e|-------
b|-10----
g|----7--
d|-------
a|-------
e|-------
============
LAST NOTE 
============

GTR 1
e|------
b|------
g|-14---
d|-x----
a|-12---
e|------

GTR 2
e|------
b|-10---
g|-7----
d|------
a|------
e|------
=============================================================
\oo/ ROCK ON \oo/
=============================================================
Comments