Taking Back Sunday - Youre So Last Summer Acoustic Chords & Tabs

 

Youre So Last Summer Acoustic Chords & Tabs

Taking Back Sunday Chords & Tabs

Version: 1 Type: Tab 2 ratings
1 star 2 stars 3 stars 4 stars 5 stars
comments

Youre So Last Summer Acoustic Tab

Artist: Taking Back Sunday
Song: Youre So Last Summer Acoustic

i looked everywhere for this song so i could do a 
cover of it with my band but i couldnt find it anywhere 
so i just thought what the hell ill do it myself.
 this is an awsonme song just as good or even better than the original

Intro x4

e--------2-2-2-2-2-2-2-2-2-2-2-2-0-
B--5-5-5-3-3-3-3-3-3-3-3-3-3-3-3-2-
G--6-6-6-2-2-2-2-2-2-2-2-2-2-2-2-2-
D--6-6-6-0-0-0-0-0-0-0-0-0-0-0-0-2-
A--4-4-4-------------------------0-
E----------------------------------

Verse x 2

e--------2-2-2-2-2-2-2-2-2-2-2-2-0-------2-2-2-2-2-2-2-2-2-2-2-2-0-
B--5-5-5-3-3-3-3-3-3-3-3-3-3-3-3-2-5-5-5-3-3-3-3-3-3-3-3-3-3-3-3-2-
G--6-6-6-2-2-2-2-2-2-2-2-2-2-2-2-2-6-6-6-2-2-2-2-2-2-2-2-2-2-2-2-2-
D--6-6-6-0-0-0-0-0-0-0-0-0-0-0-0-2-6-6-6-0-0-0-0-0-0-0-0-0-0-0-0-2-
A--4-4-4-------------------------0-4-4-4-------------------------0-
E------------------------------------------------------------------
[ Tab from: http://www.guitartabs.cc/tabs/t/taking_back_sunday/youre_so_last_summer_acoustic_tab.html ]
e----------------------------------3-3-3-3-3-3-3-3-3-3-3-3-3-3-3-3-
B--3-3-3-3-3-3-3-3-3-3-3-3-3-3-3-3-3-3-3-3-3-3-3-3-3-3-3-3-3-3-3-3-
G--4-4-4-4-4-4-4-4-4-4-4-4-4-4-4-4-4-4-4-4-4-4-4-4-4-4-4-4-4-4-4-4-
D--4-4-4-4-4-4-4-4-4-4-4-4-4-4-4-4-5-5-5-5-5-5-5-5-5-5-5-5-5-5-5-5-
A--2-2-2-2-2-2-2-2-2-2-2-2-2-2-2-2-5-5-5-5-5-5-5-5-5-5-5-5-5-5-5-5-
E----------------------------------3-3-3-3-3-3-3-3-3-3-3-3-3-3-3-3-

Chorus

Strum

e-2----2---------3----
B-3----2----3----3----
G-2----2----4----4----
D-0----4----4----5----
A------4----2----5----
E------2---------3----

Verse

Chorus

Bridge

e--------2-2-2-2-2-2-2-2-2-2-2-2-0-
B--5-5-5-3-3-3-3-3-3-3-3-3-3-3-3-2-
G--6-6-6-2-2-2-2-2-2-2-2-2-2-2-2-2- x2
D--6-6-6-0-0-0-0-0-0-0-0-0-0-0-0-2-
A--4-4-4-------------------------0-
E----------------------------------

e--2-2-2-2-2--2-2-2-2-2--2-2-2------------------------------
B--2-2-2-2-2--2-2-2-2-2--2-2-2-3-3-3-3-3--3-3-3-3-3--3-3-3--
G--2-2-2-2-2--2-2-2-2-2--2-2-2-4-4-4-4-4--4-4-4-4-4--4-4-4--
D--4-4-4-4-4--4-4-4-4-4--4-4-4-4-4-4-4-4--4-4-4-4-4--4-4-4--
A--4-4-4-4-4--4-4-4-4-4--4-4-4-2-2-2-2-2--2-2-2-2-2--2-2-2--
E--2-2-2-2-2--2-2-2-2-2--2-2-2------------------------------

Outro

Strum

e-2----0---------3----
B-3----2----3----3----
G-2----2----4----4----
D-0----2----4----5----
A------0----2----5----
E----------------3----
Comments