Taking Back Sunday - Your So Last Summer Chords & Tabs

 

Your So Last Summer Chords & Tabs

Taking Back Sunday Chords & Tabs

Version: 1 Type: Tab 0 ratings
1 star 2 stars 3 stars 4 stars 5 stars
comments

Your So Last Summer Tab

   
Artist: Taking Back Sunday
Album: Tell All Your Friends
Song: Your So Last Summer
Tabbed By: Frank T.
E-mail: sublime40182@yahoo.com


Tuning:
       E
       B
       G
       D
       A
       E
GTR II
GTR I


s= slide
p= pull
B= bend
< >= harmonics
( )= hold note/let ring
P.M.=Palm Mute


GTR II
Intro/Verse
Distortion
P.M.
E----------------------------------------------------
B----------------------------------------------------
G---6667777777777770--6667777777777770---------------
D---6667777777777770--6667777777777770---------------
A---4445555555555550--4445555555555550---------------
E----------------------------------------------------


Boys like you are a dime a dozen.....
GTR II
P.M.
E-------------------------------------------------------
B-------------------------------------------------------
G-------------------------------------------------------
D--9999999999999999---5555555555555555------------------
A--9999999999999999---5555555555555555------------------
E--7777777777777777---3333333333333333------------------

GTR I
Fill In
Clean:
E------17-------0--I----17-------------------------------
B-----------15-----I--------15s17p15---------------------
G------------------I-------------------------------------
D------------------I-------------------------------------
A------------------I-------------------------------------
E------------------I-------------------------------------

Chorus
E-------------------------------------------------------------------------------------
B-------------------------------------------------------------------------------------
G--7777777777777777-------------------------------------------------------------------
D--7777777777777777-7777777777777777--9999999999999999----5555555555555555------------
A--5555555555555555-7777777777777777--9999999999999999----5555555555555555------------
E-------------------5555555555555555--7777777777777777----3333333333333333------------


Verse: GTR II



Chorus:
GTR I/GTR II




GTR II
E----------------------------------------------------
B----------------------------------------------------
G---6667777777777--------66677777777777--------------
D---6667777777777-----66677777777777-----------
A---4445555555555--------44455555555555--------------
E----------------------------------------------------


GTR I
E-----5p0---0----------------5p0---------------------
B---------3----------------------3-------------------
G-------------------------------------------------------
D-------------------------------------------------------
A-------------------------------------------------------
E-------------------------------------------------------

[ Tab from: http://www.guitartabs.cc/tabs/t/taking_back_sunday/your_so_last_summer_tab.html ]
Cause im a wishful thinker with the worst intentions......
E----------------------------------------------------
B----------------------------------------------------
G----------------------------------------------------
D---77777--77777--777--99999-99999-999---------------
A---77777--77777--777--99999-99999-999---------------
E---55555--55555--555--77777-77777-777---------------



GTR II
E----------------------------------------------------
B----------------------------------------------------
G---6667777777777--------66677777777777--------------
D---6667777777777-----66677777777777-----------
A---4445555555555--------44455555555555--------------
E----------------------------------------------------


GTR I
E-----5p0---0----------------5p0---------------------
B---------3----------------------3-------------------
G-------------------------------------------------------
D-------------------------------------------------------
A-------------------------------------------------------
E-------------------------------------------------------


GTR II
Cause im a wishful thinker with the worst intentions......
E----------------------------------------------------
B----------------------------------------------------
G----------------------------------------------------
D---77777--77777--777--99999-99999-999---------------
A---77777--77777--777--99999-99999-999---------------
E---55555--55555--555--77777-77777-777---------------


GTR I
E--------------------------------------------
B--------------------------------------------
G--------------------------------------------
D----7-7-7-7-7-7b-7b-7b-7b-------------------
A--------------------------------------------
E--------------------------------------------


Ending
GTR II
E-------------------------------------------------------------------------------------
B-------------------------------------------------------------------------------------
G--7777777777777777-------------------------------------------------------------------
D--7777777777777777-7777777777777777--9999999999999999----5555555555555555------------
A--5555555555555555-7777777777777777--9999999999999999----5555555555555555------------
E-------------------5555555555555555--7777777777777777----3333333333333333------------




GTR II
E--------------------------------------
B--------------------------------------
G--------(7)---------------------------
D--------(7)---------------------------
A--------(5)---------------------------
E--------------------------------------


GTR I
E-----5-------5-------5------5-------(5)-----------
B--333-3---333--3--333-3--333--3-----(3)-----------
G--------------------------------------------------
D--------------------------------------------------
A--------------------------------------------------
E--------------------------------------------------
























Comments