Taking Back Sunday - Your Own Disaster Chords & Tabs

 

Your Own Disaster Chords & Tabs

Taking Back Sunday Chords & Tabs

Version: 4 Type: Tab 0 ratings
1 star 2 stars 3 stars 4 stars 5 stars
comments

Your Own Disaster Tab

   
this whole song looks like a big cluttered mess in tab, but its is extremely simple to play.

standard tuning. 
Intro-1x
E|-0~0-0-0-0-0-0-0-0-0--0~0-0-0-0-0-0-0-0-0-|
B|-0~0-0-0-0-0-0-0-0-0--0~0-0-0-0-0-0-0-0-0-|
G|-4~4-4-4-4-4-4-4-4-4--1~1-1-1-1-1-1-1-1-1-|
D|-2~2-2-2-2-2-2-2-2-2--2~2-2-2-2-2-2-2-2-2-|
A|-0~0-0-0-0-0-0-0-0-0--0~0-0-0-0-0-0-0-0-0-|
E|-x-x-x-x-x-x-x-x-x-x--x-x-x-x-x-x-x-x-x-x-|


Fill: Piano Part Transcribed To Guitar (0:33)
 e|-------------------------
 B|--------10-9-7-----------
 G|----8-9----------8-98-9-
 D|--9-----------------9---9
 A|-------------------------
 E|-------------------------

Verse-4X
E|-0~0-0-0-0-0-0-0-0-0--0~0-0-0-0-0-0-0-0-0-|
B|-0~0-0-0-0-0-0-0-0-0--0~0-0-0-0-0-0-0-0-0-|
G|-4~4-4-4-4-4-4-4-4-4--1~1-1-1-1-1-1-1-1-1-|
D|-2~2-2-2-2-2-2-2-2-2--2~2-2-2-2-2-2-2-2-2-|
A|-0~0-0-0-0-0-0-0-0-0--0~0-0-0-0-0-0-0-0-0-|
E|-x-x-x-x-x-x-x-x-x-x--x-x-x-x-x-x-x-x-x-x-|
(...just think of this and me as just a few...)

Choruse-2X
E|-0-0-0-0-0-0-x-x-x-x-x-x-x-x-x-x-x-x-x-x-x-x|
B|-0-0-0-0-0-0-x-x-x-x-x-x-x-x-x-x-x-x-x-x-x-x|
G|-1-1-1-1-1-1-x-x-x-x-x-x-x-x-x-x-x-x-x-x-x-x|
D|-2-2-2-2-2-2-4-4-4-4-4-4-7-7-7-7-7-7-7-7-7-7|
A|-2-2-2-2-2-2-4-4-4-4-2-2-7-7-7-7-7-7-7-7-7-7|
E|-x-x-x-x-x-x-2-2-2-2-2-2-5-5-5-5-5-5-5-5-5-5|
(..and i dont think that you know what...)

Verse-4X
E|-0~0-0-0-0-0-0-0-0-0--0~0-0-0-0-0-0-0-0-0-|
B|-0~0-0-0-0-0-0-0-0-0--0~0-0-0-0-0-0-0-0-0-|
G|-4~4-4-4-4-4-4-4-4-4--1~1-1-1-1-1-1-1-1-1-|
D|-2~2-2-2-2-2-2-2-2-2--2~2-2-2-2-2-2-2-2-2-|
A|-0~0-0-0-0-0-0-0-0-0--0~0-0-0-0-0-0-0-0-0-|
E|-x-x-x-x-x-x-x-x-x-x--x-x-x-x-x-x-x-x-x-x-|
(...and i dare you to forget, the marks you...)

Choruse-4X
E|-0-0-0-0-0-0-x-x-x-x-x-x-x-x-x-x-x-x-x-x-x-x|
B|-0-0-0-0-0-0-x-x-x-x-x-x-x-x-x-x-x-x-x-x-x-x|
G|-1-1-1-1-1-1-x-x-x-x-x-x-x-x-x-x-x-x-x-x-x-x|
D|-2-2-2-2-2-2-4-4-4-4-4-4-7-7-7-7-7-7-7-7-7-7|
A|-2-2-2-2-2-2-4-4-4-4-2-2-7-7-7-7-7-7-7-7-7-7|
E|-x-x-x-x-x-x-2-2-2-2-2-2-5-5-5-5-5-5-5-5-5-5|
(..and i dont think that you know what...)
[ Tab from: http://www.guitartabs.cc/tabs/t/taking_back_sunday/your_own_disaster_tab_ver_4.html ]
Bridge-1X (played soft with the piano)
E|----------------------------------------------------|
B|------------------------0-----------------------0---|
G|-9-9~9-9----9--9-9---9----9-9~9-9----9--9-9---9---9~|
D|-9--9~9-9----9-9--9---9---9--9~9-9----9-9--9---9--9~|
A|-7--------7----7---7------7--------7----7---7-----7~|
E|----------------------------------------------------|

Pre-Outro-2X
E|---------------------|
B|---------------------|
G|-9~~~~6~~~~4~~~~2~~~~|
D|-9~~~~6~~~~4~~~~2~~~~|
A|-7~~~~4~~~~2~~~~0~~~~|
E|---------------------|
(..hey lush have fun...)

Pre-Outro Cont.-5X (played slowly)
E|------------------------------------------------------------------------|
B|------------------------------------------------------------------------|
G|-9-9-9-9-9-9-9-9-9\6-6-6-6-6-6-6-6-6\4-4-4-4-4-4-4-4-4\2-2-2-2-2-2-2-2-2|
D|-9-9-9-9-9-9-9-9-9\6-6-6-6-6-6-6-6-6\4-4-4-4-4-4-4-4-4\2-2-2-2-2-2-2-2-2|
A|-7-7-7-7-7-7-7-7-7\4-4-4-4-4-4-4-4-4\2-2-2-2-2-2-2-2-2\0-0-0-0-0-0-0-0-0|
E|------------------------------------------------------------------------|
(..hey lush have fun, its the weekend, hey lush have fun...)

Outro-2X (played slowly)
E|------------------------------------------------------------------------|
B|------------------------------------------------------------------------|
G|-9-9-9-9-9-9-9-9-9\6-6-6-6-6-6-6-6-6\4-4-4-4-4-4-4-4-4\2-2-2-2-2-2-2-2-2|
D|-9-9-9-9-9-9-9-9-9\6-6-6-6-6-6-6-6-6\4-4-4-4-4-4-4-4-4\2-2-2-2-2-2-2-2-2|
A|-7-7-7-7-7-7-7-7-7\4-4-4-4-4-4-4-4-4\2-2-2-2-2-2-2-2-2\0-0-0-0-0-0-0-0-0|
E|------------------------------------------------------------------------|
(..just forget me, it's that simple...just forget me, it's that simple...)

End on
E|-------|
B|-------|
G|-9~~~~-|
D|-9~~~~-|
A|-7~~~~-|
E|-------|
(just forget me, its' that simple...)

lyrics:

Just think of this and me 
as just a few of many things 
to lie around 
to clutter up your shelves 
And I wish you weren't worth the wait 
because there's some thing's 
I'd like to say to you...

I don't think that 
you know what 
you've been missing
Cuz I don't think that 
you know what 
you've been missing

I dare you to forget 
those marks you left 
across my neck
from those nights when we were both 
found at our best
I could make this obvious, 
and you, you could deny me
all in one breath
you could shrug me off 
your shoulders...

I don't think that 
you know what 
you've been missing
Cuz I don't think that 
you know what 
you've been missing

Hey, lush, have fun
It's the weekend
Hey, lush, have fun

Hey, lush, have fun
It's the weekend
Hey, lush, have fun

I don't think that 
you know what 
you've been missing
I don't think that 
you know what 
you've been missing

Just forget me
it's that simple
Just forget me
it's that simple
Comments