Taking Back Sunday - Your Own Disaster Chords & Tabs

 

Your Own Disaster Chords & Tabs

Taking Back Sunday Chords & Tabs

Version: 3 Type: Tab 0 ratings
1 star 2 stars 3 stars 4 stars 5 stars
comments

Your Own Disaster Tab

   
Taking Back Sunday - Your Own Disaster


After hours and hours of hard effort, I finally got the right chords for this
song. This song is great although the interlude which becomes the outro, has some
type of sound effect I am still working on with my Boss Gt-6 pedal. It's not
tabbed according to the strumming pattern. Hear the song good and find the
pattern. I am pretty sure I have the correct tabs. Email me if there is any
mistake please.

Intro:

----0-------------0---------  
----0-------------0---------
----4-------------1---------
----2-------------2---------
----0-------------0---------
----0-------------0---------


Verse: 1
    A9           G#9                      
----0-------------0-------------------   
----0-------------0-------------------   
----4-------------4-------------------   
----2-------------2-------------------    
----0-------------x-------------------    
------------------4-------------------    
(Verse 1 lyrics)
        
       A9              
Just think of this and me
          G#9  
as just a few of many things
    A9
to lie around
                     G#9 
to clutter up your shelves
        A9
And I wish you weren't worth the wait
                       G#9                     A9
because there's some thing's I'd lie to say to you...





Chorus
    E            F#m          A9 
----0-------------2-----------0--------  
----0-------------2-----------0--------
----1-------------2-----------4--------
----2-------------4-----------2--------
----2-------------4-----------0--------
----0-------------2--------------------

(Chorus lyrics)
    E             
I don't think that
    F#m 
you know what 
              A9
you've been missing
       E
Cuz I don't think that
    F#m 
you know what
              A9 
you've been missing

Verse: 2
    A9           G#9                     
----0-------------0-------------------   
----0-------------0-------------------   
----4-------------4-------------------   
----2-------------2-------------------    
----0-------------x-------------------    
------------------4-------------------  
[ Tab from: http://www.guitartabs.cc/tabs/t/taking_back_sunday/your_own_disaster_tab_ver_3.html ]
   A9
I dare you to forget 
                G#9 
those marks you left
 
across my neck
             A9
from those nights when we were both 
             G#9 
found at our best
A9
I could make this obvious, 
    G#9 
and in one breath
A9
you could shrug me off 
        G#9 
your shoulders...

Chorus
    E            F#m          A9 
----0-------------2-----------0--------  
----0-------------2-----------0--------
----1-------------2-----------4--------
----2-------------4-----------2--------
----2-------------4-----------0--------
----0-------------2--------------------

(Chorus lyrics)
    E             
I don't think that
    F#m 
you know what 
              A9
you've been missing
       E
Cuz I don't think that
    F#m 
you know what
              A9 <--------- END HERE TO START INTERLUDE
you've been missing

Interlude/Outro

    E9           C#9         Bsus9      A9
----0-------------0-----------0---------0--------  
----0-------------0-----------0---------0--------
----4-------------4-----------4---------4--------
----2-------------2-----------4---------2--------
----x-------------4-----------2---------0--------
----0--------------------------------------------

(Outro Lyrics)
E9                  C#9
Hey, lush, have fun         
                    Bsus9
It's the weekend
                    A9
Hey, lush, have fun

E9                  C#9
Hey, lush, have fun
                    Bsus9
It's the weekend
                    A9
Hey, lush, have fun

   E9
I don't think that 

you know what 
              C#9   
you've been missing
  Bsus9
I don't think that
 
you know what 
              A9
you've been missing

E9
Just forget me
                  C#9
it's that simple

Just forget me
                  Bsus9
it's that simple

Just forget me
                  A9
it's that simple



badassmaton@hotmail.com

If anyone could try and get the piano part and the harmonica I believe it is, please email me.

Special shoutouts to the big boys: BIIIIIIG ED, Beast, Roids, Ozzfest, and compadre.
Comments