Taking Back Sunday - Your Own Disaster Chords & Tabs

 

Your Own Disaster Chords & Tabs

Taking Back Sunday Chords & Tabs

Version: 2 Type: Tab 0 ratings
1 star 2 stars 3 stars 4 stars 5 stars
comments

Your Own Disaster Tab

josh stadterman...



taking back sunday- your own disater

standard tuning
     ..intro
--------------------------------------------------------------------------
--------------------------------------------------------------------------
---4---4---4---4---4---4---4---4---4---4---4---4---4---4---4---4---4---4--
---4---4---4---4---4---4---4---4---4---4---4---4---4---4---4---4---4---4--
---2---2---2---2---2---x---x---x---x---x---2---2---2---2---2---x---x---x--
-----------------------4---4---4---4---4-----------------------4---4---4--
     repeat till chorus...


[ Tab from: http://www.guitartabs.cc/tabs/t/taking_back_sunday/your_own_disaster_tab_ver_2.html ]
    ..chorus
---------------------------------------------------------------------------
---------------------------------------------------------------------------
----------------------------------------2---2---2---2---2------------------
----2---2---2---2---4---4---4---4---4---2---2---2---2---2---2---2---2---2--
----2---2---2---2---4---4---4---4---4---0---0---0---0---0---2---2---2---2--
----0---0---0---0---2---2---2---2---2-----------------------o---o---o---o--
    and play till chorus ends.....


well thats it..........

seneca valley shcool..
...............................................................................
Comments