Taking Back Sunday - Your Own Disaster Chords & Tabs

 

Your Own Disaster Chords & Tabs

Taking Back Sunday Chords & Tabs

Version: 1 Type: Tab 0 ratings
1 star 2 stars 3 stars 4 stars 5 stars
comments

Your Own Disaster Tab

   
Taking Back Sunday
Your Own Disaster

Im not sure if this is right but it sounds close to me
standard tuning

Verse
E-0--------0----------------------------
B-0--------0----------------------------
G-4--------1----------------------------
D-2--------2----------------------------
A-0--------0----------------------------
E-0--------0----------------------------
[ Tab from: http://www.guitartabs.cc/tabs/t/taking_back_sunday/your_own_disaster_tab.html ]
Chorus
    E  F#m  A   
E---0---0---0---------------------------
B---0---0---0---------------------------
G---1---0---6---------------------------
D---2---4---7---------------------------
A---2---4---7---------------------------
E---0---2---5---------------------------

like i said im not sure if its right but i cant find
the tab anywhere so... if im wrong please let me know
mrly92@cs.com
Comments