Taking Back Sunday - Your Own Disaster Chords & Tabs

 

Your Own Disaster Chords & Tabs

Taking Back Sunday Chords & Tabs

Version: 2 Type: Chords 0 ratings
1 star 2 stars 3 stars 4 stars 5 stars
comments

Your Own Disaster Chords

   
okay, I saw the other tabs and I think the chorus is wrong, so I'll tab it the way i 
it...the verses on the other tab were right so I'll just use them here and outro...If you 
the chorus is wrong email me at mj6stringpunk23@yahoo.com with corrections

Intro:

----0-------------0---------|
----0-------------0---------|
----4-------------1---------|
----2-------------2---------|
----0-------------0---------|
----0-------------0---------|


Verse: 1
    A9           G#9
----0-------------0-------------------|
----0-------------0-------------------|
----4-------------4-------------------|
----2-------------2-------------------|
----0-------------x-------------------|
------------------4-------------------|
(Verse 1 lyrics)

       A9
Just think of this and me
          G#9
as just a few of many things
    A9
to lie around
                     G#9
to clutter up your shelves
        A9
And I wish you weren't worth the wait
                       G#9                     A9
because there's some thing's I'd lie to say to you...

[ Tab from: http://www.guitartabs.cc/tabs/t/taking_back_sunday/your_own_disaster_crd_ver_2.html ]
Chorus
    A9            2            A9
----0-------------0-----------0--------|
----0-------------0-----------0--------|
----4-------------4-----------4--------|    idk the name of the second so Ill
----2-------------2-----------2--------|    use 2
----0-------------0-----------0--------|
------------------4--------------------|


(Chorus lyrics)
    A9
I don't think that
    2
you know what
              A9
you've been missing
       A9
Cuz I don't think that
    2
you know what
              A9
you've been missing

then the next verse is the same as the 1st then the chorus

Interlude/Outro

    E9           C#9         Bsus9      A9
----0-------------0-----------0---------0--------|
----0-------------0-----------0---------0--------|
----4-------------4-----------4---------4--------|
----2-------------2-----------4---------2--------|
----x-------------4-----------2---------0--------|
----0--------------------------------------------|

(Outro Lyrics)
E9                  C#9
Hey, lush, have fun
                    Bsus9
It's the weekend
                    A9
Hey, lush, have fun

E9                  C#9
Hey, lush, have fun
                    Bsus9
It's the weekend
                    A9
Hey, lush, have fun

   E9
I don't think that

you know what
              C#9
you've been missing
  Bsus9
I don't think that

you know what
              A9
you've been missing

E9
Just forget me
                  C#9
it's that simple

Just forget me
                  Bsus9
it's that simple

Just forget me
                  A9
it's that simple
Comments