Taking Back Sunday - You Know How I Do Chords & Tabs

 

You Know How I Do Chords & Tabs

Taking Back Sunday Chords & Tabs

Version: 5 Type: Tab

You Know How I Do Tab

   
Song: You Know How I Do
Artist: Taking Back Sunday
Album: Tell All Your Friends
Tuning: Standard (E,A,D,G,B,E)

Okay, so I'm gonna tab it out the way I play it, which I'm pretty sure is 100% accurate. 
didn't see any like this on here so hopefully you guys like it. Here it is.

Guitar 1 - Lead
Guitar 2 - Rhythm

Intro(Guitar 1)
E---------------------------------------------------------|
B--00000000000-0000---------------------------------------|
G--44444444666/8888---------------------------------------|
D---------------------------------------------------------|
A---------------------------------------------------------|
E---------------------------------------------------------|
Play this twice alone and then continue througout the whole verse.

Verse(guitar 2)
E---------------------------------------------------------|
B-0000000000000000----------------------------------------|
G-4444444444444444----------------------------------------|
D-xxxxxxxxxxxxxxxx----------------------------------------|
A-2222222222222222----------------------------------------|
E---------------------------------------------------------|
You just basically strum this chord over and over during the verse until you reach the chorus.

Chorus(guitar 1)
E---------------------------------------------------------|
B--00000000000000000000000000000000-----------------------|
G-/88888888888888888888888888888888-----------------------|
D---------------------------------------------------------|\
A---------------------------------------------------------| \
E---------------------------------------------------------|  \
                                                              2x
E-----------------------------------------------------------|  /
B--0000000000000000000000000-0-00-0-00000-------------------| /
G-\4444444444444444444444444/6\44/6\44444-------------------|
D-----------------------------------------------------------|
A-----------------------------------------------------------|
E-----------------------------------------------------------|

Chorus(guitar 2)
E---------------------------------------------------------|
B---------------------------------------------------------|
G-88888888888888888888888888888888------------------------|
D-xxxxxxxxxxxxxxxxxxxxxxxxxxxxxxxx------------------------|\
A-66666666666666666666666666666666------------------------| \
E---------------------------------------------------------|  \
                                                              x2
E-----------------------------------------------------------|  /
B-----------------------------------------------------------| /
G-44444444444444444444444444444444--------------------------|
D-xxxxxxxxxxxxxxxxxxxxxxxxxxxxxxxx--------------------------|
A-22222222222222222222222222222222--------------------------|
E-----------------------------------------------------------|

Repeat Verse and Chorus

Breakdown(both guitars)
E---------------------------------------------------------|
B---------------------------------------------------------|
G-4-4-4-4-44-2-2-2-2-24-----------------------------------|
D-4-4-4-4-44-2-2-2-2-24-2~--------------------------------|
A-2-2-2-2-22-0-0-0-0-02-2~--------------------------------|
E-----------------------0~--------------------------------|
[ Tab from: http://www.guitartabs.cc/tabs/t/taking_back_sunday/you_know_how_i_do_tab_ver_5.html ]
Awesome Bass Riff
G---------------------------------------------------------|
D---------------------------------------------------------|
A-------------000000000000002244444444--------------------|
E-000000000000--------------------------------------------|

G---------------------------------------------------------|
D---------------------------------------------------------|
A-222222240000000000000-----------------------------------|
E----------------------4320-------------------------------|

Piano riff(transcribed for guitar)(clean)
E---------------------------------------------------------|x2
B----10-9-------10-9--------------------------------------|
G-9-------11-9-------11-9---9-9-11-9---9-9-8-9------------|
D---------------------------------------------------------|
A---------------------------------------------------------|
E---------------------------------------------------------|

Guitar 2 comes in on the last 16 notes of the last bass riff with this little lead up to the bridge.

Lead up(guitar 2)
E-----------------------------------------------------------|For this lightly
B-----------------------------------------------------------|build up the
G--2222222222222222-----------------------------------------|strenght of the
D--2222222222222222-----------------------------------------|strumming until
A--0000000000000000-----------------------------------------|it is at full
E-----------------------------------------------------------|strength.
pm ....

Bridge(guitar 1)(come in after 2 measures of bass riff)
E---------------------------------------------------------|
B---------------------------------------------------------|
G-----------------222222222222224/------------------------|
D-2222222222222222222222222222224/------------------------|
A-2222222222222222000000000000002/------------------------|
E-0000000000000000----------------------------------------|

(guitar 1 continued)
E---------------------------------------------------------|
B---------------------------------------------------------|
G-------------------2222222222222222----------------------|
D---6-6764---4-4642-2222222222222222----------------------|
A-44-4-----22-2-----0000000000000000----------------------|
E---------------------------------------------------------|

Bridge(guitar 2)
E---------------------------------------------------------|
B---------------------------------------------------------|
G-----------------2222222222222244------------------------|
D-22222222222222222222222222222244------------------------|
A-22222222222222220000000000000022------------------------|
E-0000000000000000----------------------------------------|

(guitar 2 continued)
E---------------------------------------------------------|
B---------------------------------------------------------|
G-66666666-44444446-2222222222222222----------------------|
D-66666666-44444446-2222222222222222----------------------|
A-44444444-22222224-0000000000000000----------------------|
E---------------------------------------------------------|

Outro(both guitars)
E---------------------------------------------------------|
B---------------------------------------------------------|
G------------------222222222222222-4-6----4--4/6--2~------|
D-22222222222222222222222222222222-4-6----4--4/6--2~------|
A-22222222222222222000000000000000-2-4----2--2/4--0~------|
E-00000000000000000---------------------------------------|

And thats it. It's a relatively easy and simple song. Leave some comments and rate it 
If you have any suggestions or anything, send an email my way at SaintJimmy10@yahoo.com. Thanks.