Taking Back Sunday - You Know How I Do Chords & Tabs

 

You Know How I Do Chords & Tabs

Taking Back Sunday Chords & Tabs

Version: 4 Type: Tab 0 ratings
1 star 2 stars 3 stars 4 stars 5 stars
comments

You Know How I Do Tab

NORMAL TUNING

INTRO/VERSE
                                     
Guitar 1
|-----------------------------|
|--0-0-0-0-0-0--0-0-0--0-0-0--|
|--4-4-4-4-4-4/-6-6-6/-8-8-8--|
|-----------------------------|
|-----------------------------|
|-----------------------------|x12

Guitar 2 (comes in with drums)
|-------------------------------------|
|-------------4-----------------------|
|--4-----4----------------------------|
|--4-------4------4-----------4-------|
|--2--------------2-----2-----2----2--|
|-----------------------0----------0--|

Guitar 3 - (at the very start has this goin, through the verse to, 
|--14b~--|  sounds like flanger)not to highly important
|--------|
|--------|
|--------|
|--------|
|--------|

CHORUS

Guitar 1
|----------------------------------------------------------|
|--0-0-0-0-0-0-0-0-0-0-0-0-0--0-0-0-0-0-0-0-0-0-0-0-0-0-0--|
|--4-4-4-4-4-4-4-4-4-6-6-4-4--4-4-4-4-4-4-4-4-4-4-6-6-4-4--|
|----------------------------------------------------------|
|----------------------------------------------------------|
|----------------------------------------------------------|x2
[ Tab from: http://www.guitartabs.cc/tabs/t/taking_back_sunday/you_know_how_i_do_tab_ver_4.html ]
Guitar 2
|-----------------------------------------------------------|
|-----------------------------------------------------------|
|-----------------------------------------------------------|
|--4-4-4-4-4-4-4-4-4-4-4-4-4-4------------------------------|
|--2-2-2-2-2-2-2-2-2-2-2-2-2-2-2-2-2-2-2-2-2-2-2-2-2-2-2-2--|
|------------------------------0-0-0-0-0-0-0-0-0-0-0-0-0-0--|x2

VERSE 2- Guitar 1 SAME

Guitar 2 - sightly different 
|----------------|
|--4------4---4--|
|--4----4---4----|
|--4--4----------|
|--2-------------|
|----------------|

CHORUS 2- SAME, BUT END WITH THIS
|---------------------------|
|---------------------------|
|---------------------------|
|--4-4-4-4-4-2-2-2-2-24-----|
|--2-2-2-2-2-0-0-0-0-02-2~--|
|-----------------------0~--|

BRIDGE - PIANO + BASS 

OUTRO

Guitar 1 (this is hard to hear and it played fast half way thru each bar,
sounds somethin like this.....to be honest i have no idea)
|------------------------------|
|------------------------------|
|------------------------------|
|--------7h9-------7h9----5h7--|
|-----7h9-------7h9----5h7-----|
|--7h9-------5h7---------------|x4
or for the guitar 1 part here u can do:
|---------------------------------------|
|---------------------------------------|
|---------------------------------------|
|-----2---6-4-2-4--------2---4-2-1-2----|
|-4-4---4------------2-2---2------------|
|---------------------------------------|
Guitar 2(in the background)
|--------------------------------------------------|
|--------------------------------------------------|
|--------------------------------------------------|
|----------------------6-6-6-6-4-4-4-4-------------|
|--2-2-2-2-2-7-7-7-7-7-4-4-4-4-2-2-2-2-7-7-7-7-7-7-|
|--0-0-0-0-0-5-5-5-5-5-----------------5-5-5-5-5-5-|x4
Comments