Taking Back Sunday - You Know How I Do Chords & Tabs

 

You Know How I Do Chords & Tabs

Taking Back Sunday Chords & Tabs

Version: 1 Type: Tab 0 ratings
1 star 2 stars 3 stars 4 stars 5 stars
comments

You Know How I Do Tab

   
Song:You Know How I Do
Band:Taking Back Sunday
Tabbed By:Eric M. (rufioyc@hotmail.com)


Intro/Verse: (x12) 
e|---------------------------------------
B|---------------------------------------
G|---4-4-4-4-4-4-4-4-6-6-6-8-8-8-8-------
D|---x-x-x-x-x-x-x-x-x-x-x-x-x-x-x-------
A|---2-2-2-2-2-2-2-2-4-4-4-6-6-6-6-------
E|---------------------------------------

Chorus: (keep repeating)
e|-----------
B|-----------
G|---4-------
D|---x-------
A|---2-------
E|-----------

Repeat Intro/Verse (x10)

Repeat Chorus
[ Tab from: http://www.guitartabs.cc/tabs/t/taking_back_sunday/you_know_how_i_do_tab.html ]
Interlude:
e|-----------------------------------
B|-----------------------------------
G|---4-4-4-4-4-4-2-2-2-2-2-4---------
D|---4-4-4-4-4-4-2-2-2-2-2-4-2~------
A|---2-2-2-2-2-2-0-0-0-0-0-2-2~------
E|---------------------------0~------

Outro: (x4) (don't play fourth time) 
e|------------------------------------------------------------------
B|------------------------------------------------------------------
G|4444444444444444----------------4444444422222222------------------
D|444444444444444422222222222222224444444422222222(2222222222222222)
A|222222222222222222222222222222222222222200000000(2222222222222222)
E|----------------0000000000000000----------------(0000000000000000)

End On:
e|------------
B|------------
G|---2--------
D|---2--------
A|---0--------
E|------------

I'm not sure about the outro...during it, another guiitar is 
playing so I couldn't make it out perfectly. If you have any
corrections please email me at rufioyc@hotmail.com. Thanks,
Comments