Taking Back Sunday - You Know How I Do Chords & Tabs

 

You Know How I Do Chords & Tabs

Taking Back Sunday Chords & Tabs

Version: 1 Type: Bass Tab 0 ratings
1 star 2 stars 3 stars 4 stars 5 stars
comments

You Know How I Do Bass Tab

--------------------------------------------------------------------------------
                     Taking Back Sunday - You Know How I Do
-------------------------------------------------------------------------------- 

By: Nick 

Intro & verse x2: 
(Start Playing after the guitar plays the riff twice) 

G|----------------------------------------------------------| 
D|----------------------------------------------------------| 
A|-2~------222222222222222222222222-------------------------| 
E|---------------------------------000000000000000000000000-| 

Chorus x2: 
G|--------------------------------------------------| 
D|--------------------------------------------------| 
A|-222222222222222222222222-------------------------| 
E|-------------------------000000000000000000000000-| 
[ Tab from: http://www.guitartabs.cc/tabs/t/taking_back_sunday/you_know_how_i_do_btab.html ]
Verse x2 

Breakdown: 
G|--------------------------| 
D|--------------------------| 
A|-2-2-2-2-22-0-0-0-0-00----| 
E|----------------------0---| 

Bass Solo & Outro x7 
G|-----------------------------------------------------------------| 
D|-----------------------------------------------------------------| 
A|--------------000000000000-22-44444444-22222222-2400000000-0-----| 
E|--000000000000----------------------------------------------2----| 
* on the 7th time playing, the tempo changes. 

Well that's everything. I did this kind of quickly, so if you have any
questions e-mail me at gizmo0246@aol.com Anyway, TBS is a great band, this is
one of thier more easier songs to play I guess, but still a great song. 

==============================================================================
Comments