Taking Back Sunday - Up Against Chords & Tabs

 

Up Against Chords & Tabs

Taking Back Sunday Chords & Tabs

Version: 2 Type: Tab

Up Against Tab

half step down


intro
E|-------------------------------------------------|
B|-------------------------------------------------|
G|---------7p06p0----------------------------------|
D|------------------------7p0-9----55-55-55-55-----|
A|----9----------------7-----------55-55-55-55-----|
E|-7---------------5---------------33-33-33-33-----|
p.m.____________________________

[ Tab from: http://www.guitartabs.cc/tabs/t/taking_back_sunday/up_against_tab_ver_2.html ]
E|-------------------------------------------------|
B|-------------------------------------------------|
G|---------7p06p0------------------------------(5)-|
D|------------------------7p0-9----55-55-55-5--(5)-|
A|----9----------------7-----------55-55-55-5--(5)-|
E|-7---------------5---------------33-33-33-3------|
p.m.____________________________

(harmonics)


chorus
E|-------------------------------------------------|
B|-------------------------------------------------|
G|-------------------------------------------------|
D|-9(X3)7(X3)4(X3)5(X3)55-55-55-55-----------------|
A|-9----7----4----5----55-55-55-55-----------------|
E|-7----5----2----3----33-33-33-33-----------------|

more later