Taking Back Sunday - Twenty-twenty Surgery Chords & Tabs

 

Twenty-twenty Surgery Chords & Tabs

Taking Back Sunday Chords & Tabs

Version: 2 Type: Tab

Twenty-twenty Surgery Tab

   
Intro

Guitar I

 |____________3x_______________|
e|-----------------------------|-----------------------------------|
B|-----------------------------|-----------------------------------|
G|13-13--12-12-12----8-8--5555/|15-15-15----------10-10-8---8---8--|
D|x--x---x--x--x-----x-x--xxxx/|---------13-13-13------------------|
A|11-11--10-10-10----6-6--3333/|-----------------------------------|
E|-----------------------------|-----------------------------------|

Guitar II

e|--------------------------------|--------------------------------|
B|--------------------------------|--------------------------------|
G|------------------------55555555|--------------------------------|
D|33333333333333336666666655555555|33333333333333338888888888888888|
A|33333333333333336666666633333333|33333333333333338888888888888888|
E|111111111111111144444444--------|11111111111111116666666666666666|


Verse A

Guitar I
0:18
 |_________5x_________|
e|--------------------|
B|--------------------|
G|12----12------12----|
D|----10------10----10|
A|--10------10----10--|
E|--------------------|

Guitars I & II
0:26
 
e|--------------------------------|
B|--------------------------------|
G|----------------thirteens-------|
D|11111111111111111313131313131313|
A|11111111111111111313131313131313|
E|9-9-9-9-9-9-9-9-9999999999999999|


Guitar I
0:33
 |_________8x_________|
e|--------------------|
B|--------------------|
G|12----12------12----|
D|----10------10----10|
A|--10------10----10--|
E|--------------------|

Guitar II
0:40
e|----------------------------------|
B|----------------------------------|
G|101010101010101010101010101010\888|
D|x-x-x-x-x-x-x-x-x-x-x-x-x-x-x-\xxx|
A|8-8-8-8-8-8-8-8-8-8-8-8-8-8-8-\666|
E|----------------------------------|

Prechorus
Guitars I & II
e|----------------------------------------------------------------|
B|----------------------------------------------------------------|
G|66666666666666668888888888888888--------------------------------|
D|6666666666666666888888888888888866666666666666668888888888888888|
A|4444444444444444666666666666666666666666666666668888888888888888|
E|--------------------------------44444444444444446666666666666666|
[ Tab from: http://www.guitartabs.cc/tabs/t/taking_back_sunday/twenty_twenty_surgery_tab_ver_2.html ]
Chorus
Guitars I & II
 |____________________2x__________________________|
e|------------------------------------------------|
B|------------------------------------------------|
G|----------------5555555555555555----------------|
D|666666666666666655555555555555553333333333333333|
A|666666666666666633333333333333333333333333333333|
E|4444444444444444----------------1111111111111111|

Guitar I
e|---------------------------|
B|---------------------------|
G|15--15--10--10--8--8--6--6-|
D|--13--13--8---8--6--6--6--6|
A|---------------------------|
E|---------------------------|

Guitar II
e|----------------|
B|----------------|
G|----------------|
D|8888888888888888|
A|8888888888888888|
E|6666666666666666|

Verse B
Guitar I
 |_________8x_________|
e|--------------------|
B|--------------------|
G|12----12------12----|
D|----10------10----10|
A|--10------10----10--|
E|--------------------|

Guitar II

e|--------------------------------|
B|--------------------------------|
G|--------------------------------|
D|--------------------------------|
A|--------------------------------|
E|011-----011-----011-----066-----|

Bridge
Guitar I
2:31          thirteens
e|19--18-----131313131313131313|
B|--------17-------------------|
G|-----------------------------|
D|-----------------------------|
A|-----------------------------|
E|-----------------------------|

Guitar II
2:45
e|----------------------------------|
B|----------------------------------|
G|--------------------faster picking|
D|3-3-3---33333333333322222222------|
A|3-3-3---33333333333322222222------|
E|1-1-1---11111111111100000000------|
pm. . .


Outro
Guitars I & II
 |____________________2x__________________________________________|
e|----------------------------------------------------------------|
B|----------------------------------------------------------------|
G|----------------5555555555555555--------------------------------|
D|6666666666666666555555555555555533333333333333338888888888888888|
A|6666666666666666333333333333333333333333333333338888888888888888|
E|4444444444444444----------------11111111111111116666666666666666|

Guitar I
E|0~|
B|0~|
G|6~|
D|6~|
A|0~|
E|0~|


ORDER

Intro
Verse A
Prechorus
Chorus
Verse B
Prechorus
Chorus
Bridge
Outro