Taking Back Sunday - Twenty-twenty Surgery Chords & Tabs

 

Twenty-twenty Surgery Chords & Tabs

Taking Back Sunday Chords & Tabs

Version: 1 Type: Tab

Twenty-twenty Surgery Tab

   
Intro

Guitar I

 |____________3x_______________|
e|-----------------------------|-----------------------------------|
B|-----------------------------|-----------------------------------|
G|13-13--12-12-12----8-8--5555/|15-15-15----------10-10-8---8---8--|
D|x--x---x--x--x-----x-x--xxxx/|---------13-13-13------------------|
A|11-11--10-10-10----6-6--3333/|-----------------------------------|
E|-----------------------------|-----------------------------------|

Guitar II

e|--------------------------------|--------------------------------|
B|--------------------------------|--------------------------------|
G|------------------------55555555|--------------------------------|
D|33333333333333336666666655555555|33333333333333338888888888888888|
A|33333333333333336666666633333333|33333333333333338888888888888888|
E|111111111111111144444444--------|11111111111111116666666666666666|


Verse
[ Tab from: http://www.guitartabs.cc/tabs/t/taking_back_sunday/twenty_twenty_surgery_tab.html ]
Guitar I
0:18
 |_________5x_________|
e|--------------------|
B|--------------------|
G|12----12------12----|
D|----10------10----10|
A|--10------10----10--|
E|--------------------|

Guitars I & II
0:26
 |_______4x_______|
e|----------------|
B|----------------|
G|----------------|
D|1111111111111111|
A|1111111111111111|
E|9-9-9-9-9-9-9-9-|


Guitar I
0:33
 |_________8x_________|
e|--------------------|
B|--------------------|
G|12----12------12----|
D|----10------10----10|
A|--10------10----10--|
E|--------------------|

Guitar II
0:40
e|----------------------------------|
B|----------------------------------|
G|101010101010101010101010101010\888|
D|x-x-x-x-x-x-x-x-x-x-x-x-x-x-x-\xxx|
A|8-8-8-8-8-8-8-8-8-8-8-8-8-8-8-\666|
E|----------------------------------|

Prechorus
Guitars I & II
e|----------------------------------------------------------------|
B|----------------------------------------------------------------|
G|66666666666666668888888888888888--------------------------------|
D|6666666666666666888888888888888866666666666666668888888888888888|
A|4444444444444444666666666666666666666666666666668888888888888888|
E|--------------------------------44444444444444446666666666666666|

Chorus