Taking Back Sunday - This Photograph Is Proof Chords & Tabs

 

This Photograph Is Proof Chords & Tabs

Taking Back Sunday Chords & Tabs

Version: 2 Type: Tab 0 ratings
1 star 2 stars 3 stars 4 stars 5 stars
comments

This Photograph Is Proof Tab

TAKING BACK SUNDAY
This Photograph Is Proof (I Know You Know) (Acoustic)
tabbed by Pete Crosby (bahamut_zero85@hotmail.com)

This is a live acoustic version of the song for MTV.com it can be found
on the MTV website, it was just Adam on vocals with Fred on guitar and
backup vocals, it's a great solo version of the song if you can manage
the dual vocals.

Tuning - One step down (DGCFAD)
*It can be played in standard tuning if you want it in the same key
as the CD version, but Fred plays it in this tuning in the video.


Intro:
------

D|-2---2-2-2-2-0---0-0-0-0-2---2-2-2-2-0---0-0-0-0-|
A|-3---3-3-3-3-3---3-3-3-3-3---3-3-3-3-3---3-3-3-3-|
F|-2---2-2-2-2-2---2-2-2-2-2---2-2-2-2-2---2-2-2-2-|
C|-0---0-0-0-0-0---0-0-0-0-0---0-0-0-0-0---0-0-0-0-|
G|-------------------------------------------------|
D|-------------------------------------------------|

D|-------------------------------------------------|
A|-2---2-2-2-2-3---3-3-3-3-2---2-2-2-2-3---3-3-3-3-|
F|-2---2-2-2-2-2---2-2-2-2-2---2-2-2-2-2---2-2-2-2-|
C|-0---0-0-0-0-0---0-0-0-0-0---0-0-0-0-0---0-0-0-0-|
G|-2---2-2-2-2-2---2-2-2-2-2---2-2-2-2-2---2-2-2-2-|
D|-------------------------------------------------|


Verse:
------

D|-2---2-2-2-2-0---0-0-0-0-2---2-2-2-2-0---0-0-0-0-|
A|-3---3-3-3-3-3---3-3-3-3-3---3-3-3-3-3---3-3-3-3-|
F|-2---2-2-2-2-2---2-2-2-2-2---2-2-2-2-2---2-2-2-2-|
C|-0---0-0-0-0-0---0-0-0-0-0---0-0-0-0-0---0-0-0-0-|
G|-------------------------------------------------|
D|-------------------------------------------------|

D|-------------------------------------------------|
A|-2---2-2-2-2-3---3-3-3-3-2---2-2-2-2-3---3-3-3-3-|
F|-2---2-2-2-2-2---2-2-2-2-2---2-2-2-2-2---2-2-2-2-|
C|-0---0-0-0-0-0---0-0-0-0-0---0-0-0-0-0---0-0-0-0-|
G|-2---2-2-2-2-2---2-2-2-2-2---2-2-2-2-2---2-2-2-2-|
D|-------------------------------------------------|

D|-2---2-2-2-2-0---0-0-0-0-2---2-2-2-2-0---0-0-0-0-|
A|-3---3-3-3-3-3---3-3-3-3-3---3-3-3-3-3---3-3-3-3-|
F|-2---2-2-2-2-2---2-2-2-2-2---2-2-2-2-2---2-2-2-2-|
C|-0---0-0-0-0-0---0-0-0-0-0---0-0-0-0-0---0-0-0-0-|
G|-------------------------------------------------|
D|-------------------------------------------------|

D|-------------------------------------------------|
A|-2---2-2-2-2-3---3-3-3-3-2---2-2-2-2-3---3-3-3-3-|
F|-2---2-2-2-2-2---2-2-2-2-2---2-2-2-2-2---2-2-2-2-|
C|-0---0-0-0-0-0---0-0-0-0-0---0-0-0-0-0---0-0-0-0-|
G|-2---2-2-2-2-2---2-2-2-2-2---2-2-2-2-2---2-2-2-2-|
D|-------------------------------------------------|


Pre-chorus:
-----------

D|-------------------------------------------------|
A|-0---0-0-0-0-2---2-2-2-2-5---5-5-5-5-5---5-5-5-5-|
F|-4---4-4-4-4-0---0-0-0-0-0---0-0-0-0-6---6-6-6-6-|
C|-2---2-2-2-2-2---2-2-2-2-x---x-x-x-x-7---7-7-7-7-|
G|-0---0-0-0-0-0---0-0-0-0-2---2-2-2-2-7---7-7-7-7-|
D|-------------------------------------------------|
 
   "Now I'm lyin' on the table..."
[ Tab from: http://www.guitartabs.cc/tabs/t/taking_back_sunday/this_photograph_is_proof_tab_ver_2.html ]
D|-------------------------------------------------|
A|-2---2-2-2-2-3---3-3-3-3-2---2-2-2-2-3---3-3-3-3-|
F|-2---2-2-2-2-2---2-2-2-2-2---2-2-2-2-2---2-2-2-2-|
C|-0---0-0-0-0-0---0-0-0-0-0---0-0-0-0-0---0-0-0-0-|
G|-2---2-2-2-2-2---2-2-2-2-2---2-2-2-2-2---2-2-2-2-|
D|-------------------------------------------------|

   "Keepin' in mind the way..."

D|-------------------------------------------------|
A|-0---0-0-0-0-2---2-2-2-2-5---5-5-5-5-5---5-5-5-5-|
F|-4---4-4-4-4-0---0-0-0-0-0---0-0-0-0-6---6-6-6-6-|
C|-2---2-2-2-2-2---2-2-2-2-x---x-x-x-x-7---7-7-7-7-|
G|-0---0-0-0-0-0---0-0-0-0-2---2-2-2-2-7---7-7-7-7-|
D|-------------------------------------------------|

   "When the most I could do..."

D|-3---3-3-3-3-3---3-3-3-3-3---3-3-3-3-3---3-3-3-3-|
A|-3---3-3-3-3-3---3-3-3-3-3---3-3-3-3-3---3-3-3-3-|
F|-0---0-0-0-0-0---0-0-0-0-0---0-0-0-0-0---0-0-0-0-|
C|-0---0-0-0-0-0---0-0-0-0-0---0-0-0-0-0---0-0-0-0-|
G|-2---2-2-2-2-2---2-2-2-2-2---2-2-2-2-2---2-2-2-2-|
D|-3---3-3-3-3-3---3-3-3-3-3---3-3-3-3-3---3-3-3-3-|

   "The most I could do..."


Chorus (x2):
------------

D|-2---2-2-2-2-0---2-2-2-2-2---2-2-2-2-2---2-2-2-2-|
A|-3---3-3-3-3-3---3-3-3-3-3---3-3-3-3-3---3-3-3-3-|
F|-2---2-2-2-2-2---2-2-2-2-2---2-2-2-2-2---2-2-2-2-|
C|-0---0-0-0-0-0---0-0-0-0-0---0-0-0-0-0---0-0-0-0-|
G|-------------------------------------------------|
D|-------------------------------------------------|

  "I know you know..."

D|-------------------------------------------------|
A|-3---3-3-3-3-3---3-3-3-3-3---2-2-2-2-3---3-3-3-3-|
F|-2---2-2-2-2-2---2-2-2-2-0---0-0-0-0-0---0-0-0-0-|
C|-0---0-0-0-0-0---0-0-0-0-2---2-2-2-2-2---2-2-2-2-|
G|-2---2-2-2-2-2---2-2-2-2-3---3-3-3-3-3---3-3-3-3-|
D|-------------------------------------------------|
   "I know you didn't mean it..."


Repeat Verse, Pre-chorus and Chorus once.

Interlude I (x8):
-----------------

Play quietly except for the last time through.

D|-2---2-2-2-2-2---2-2-2-2-2---2-2-2-2-2---2-2-2-2-|
A|-3---3-3-3-3-3---3-3-3-3-2---2-2-2-2-2---2-2-2-2-|
F|-4---4-4-4-4-4---4-4-4-4-4---4-4-4-4-4---4-4-4-4-|
C|-4---4-4-4-4-4---4-4-4-4-4---4-4-4-4-4---4-4-4-4-|
G|-2---2-2-2-2-2---2-2-2-2-2---2-2-2-2-2---2-2-2-2-|
D|-------------------------------------------------|

   "Drop everything..."


Interlude II (x4):
------------------

D|-2---2-2-2-2-2---2-2-2-2-2---2-2-2-2-2---2-2-2-2-|
A|-3---3-3-3-3-5---5-5-5-5-3---3-3-3-3-2---2-2-2-2-|
F|-4---4-4-4-4-4---4-4-4-4-4---4-4-4-4-4---4-4-4-4-|
C|-4---4-4-4-4-4---4-4-4-4-4---4-4-4-4-4---4-4-4-4-|
G|-2---2-2-2-2-2---2-2-2-2-2---2-2-2-2-2---2-2-2-2-|
D|-------------------------------------------------|

D|-3---3-3-3-3-2---2-2-2-2-0---0-0-0-0-------------|
A|-3---3-3-3-3-3---3-3-3-3-3---3-3-3-3-------------|
F|-0---0-0-0-0-0---0-0-0-0-0---0-0-0-0-------------|
C|-0---0-0-0-0-0---0-0-0-0-0---0-0-0-0-2-2-2-2-2-2-|
G|-x---x-x-x-x-x---x-x-x-x-x---x-x-x-x-2-2-2-2-2-2-|
D|-3---3-3-3-3-3---3-3-3-3-3---3-3-3-3-0-0-0-0-0-0-|


Repeat Chorus twice and end on:

D|----2~-|
A|---3~--|
F|--2~---|
C|-0~----|
G|-------|
D|-------|
Comments