Taking Back Sunday - This Photograph Is Proof I Know You Know Chords & Tabs

 

This Photograph Is Proof I Know You Know Chords & Tabs

Taking Back Sunday Chords & Tabs

Version: 1 Type: Tab 6 ratings
1 star 2 stars 3 stars 4 stars 5 stars
comments

This Photograph Is Proof I Know You Know Tab

   
Artist: Taking Back Sunday
Song: This Photograph Is Proof (I Know You Know)
Album: Spider-Man 2 Soundtrack
Tuning: Standard
Submitted By: Franko
E-Mail: for_the_workforce182@myway.com


.=Palm Mute
h=hammer
p=pull
/=slide
()=Hold Note/Let Ring
x=Scratch/Dead Note


GTR II
Intro/Verse
E--2-2-2---------2-2-2---------------------------------------
B---------5-5-5---------5-5-5--2-2-2-3-3-3-2-2-2-3-3-3-------
G------------------------------0-0-0-0-0-0-0-0-0-0-0-0-------
D--0-0-0--0-0-0--0-0-0--0-0-0--------------------------------
A------------------------------------------------------------
E------------------------------------------------------------

GTR I
Verse:
E---------------------------------------------------------------
B---------------------------------------------------------------
G---7-7--------------7-7--------------4-4------------4-4--------
D---7-7--------------7-7--------------4-4------------4-4--------
A---5-5-----5-5-5-5--5-5-----5-5-5-5--2-2----2-2-2-2-2-2--------
E---------------------------------------------------------------
    . .     . . . .  . .     . . . .  . .    . . . . . .

GTR II
Pre Chorus:
E---------------------------------------------------------
B--2---2---2---3---3---3---5---5---5---7---7---7----------
G----0---0---0---0---0---0---0---0---0---0---0---0--------
D---------------------------------------------------------
A---------------------------------------------------------
E---------------------------------------------------------


E----------------------------------------------------------
B--2---2---2---3---3---3---2---2---2---3---3---3-----------
G----0---0---0---0---0---0---0---0---0---0---0---0---------
D----------------------------------------------------------
A----------------------------------------------------------
E----------------------------------------------------------

E---------------------------------------------------------
B--2---2---2---3---3---3---5---5---5---7---7---7----------
G----0---0---0---0---0---0---0---0---0---0---0---0--------
D---------------------------------------------------------
A---------------------------------------------------------
E---------------------------------------------------------

GTR I
Pre Chorus:
E----------------------------------------------------
B----------------------------------------------------
G--7-7-7-7-7-7-7-7-777777777-------------------------
D--7-7-7-7-7-7-7-7-777777777-------------------------
A--5-5-5-5-5-5-5-5-555555555-------------------------
E----------------------------------------------------
                   .........
GTR II/GTR I
Chorus: 2x
E--------------------------------------------------------
B--------------------------------------------------------
G---77777777777777-44444444444/55555555555---------------
D---77777777777777-44444444444/55555555555---------------
A---55555555555555-22222222222/33333333333---------------
E--------------------------------------------------------

E-------------------
B-------------------
G-----(7)-----------
D-----(7)-----------
A-----(5)-----------
E-------------------



GTR II
2nd Verse:
E--------------------------------
B--2-2-2-3-3-3-2-2-2-3-3-3-------
G--0-0-0-0-0-0-0-0-0-0-0-0-------
D--------------------------------
A--------------------------------
E--------------------------------

GTR I
2nd Verse:
E-------------------------------------------------------------
B-------------------------------------------------------------
G-----4-4------------4-4------------7-7-----------7-7---------
D-----4-4------------4-4------------7-7-----------7-7---------
A-----2-2----2-2-2-2-2-2---2-2-2-2--5-5---5-5-5-5-5-5---------
E-------------------------------------------------------------
      . .    . . . . . .   . . . .  . .   . . . . . .
[ Tab from: http://www.guitartabs.cc/tabs/t/taking_back_sunday/this_photograph_is_proof_i_know_you_know_tab.html ]
GTR II/2x
E--2-2-2---------2-2-2---------------------------------------
B---------5-5-5---------5-5-5--2-2-2-3-3-3-2-2-2-3-3-3-------
G------------------------------0-0-0-0-0-0-0-0-0-0-0-0-------
D--0-0-0--0-0-0--0-0-0--0-0-0--------------------------------
A------------------------------------------------------------
E------------------------------------------------------------


E---------------------------------------------------------------
B---------------------------------------------------------------
G---7-7--------------7-7--------------4-4------------4-4--------
D---7-7--------------7-7--------------4-4------------4-4--------
A---5-5-----5-5-5-5--5-5-----5-5-5-5--2-2----2-2-2-2-2-2--------
E---------------------------------------------------------------
    . .     . . . .  . .     . . . .  . .    . . . . . .


GTR II
Pre Chorus:
E---------------------------------------------------------
B--2---2---2---3---3---3---5---5---5---7---7---7----------
G----0---0---0---0---0---0---0---0---0---0---0---0--------
D---------------------------------------------------------
A---------------------------------------------------------
E---------------------------------------------------------


E----------------------------------------------------------
B--2---2---2---3---3---3---2---2---2---3---3---3-----------
G----0---0---0---0---0---0---0---0---0---0---0---0---------
D----------------------------------------------------------
A----------------------------------------------------------
E----------------------------------------------------------

E---------------------------------------------------------
B--2---2---2---3---3---3---5---5---5---7---7---7----------
G----0---0---0---0---0---0---0---0---0---0---0---0--------
D---------------------------------------------------------
A---------------------------------------------------------
E---------------------------------------------------------

GTR I
Pre Chorus:
E----------------------------------------------------
B----------------------------------------------------
G--7-7-7-7-7-7-7-7-777777777-------------------------
D--7-7-7-7-7-7-7-7-777777777-------------------------
A--5-5-5-5-5-5-5-5-555555555-------------------------
E----------------------------------------------------
                   .........

GTR II/GTR I
Chorus: 2x
E--------------------------------------------------------
B--------------------------------------------------------
G---77777777777777-44444444444/55555555555---------------
D---77777777777777-44444444444/55555555555---------------
A---55555555555555-22222222222/33333333333---------------
E--------------------------------------------------------

E-------------------
B-------------------
G-----(7)-----------
D-----(7)-----------
A-----(5)-----------
E-------------------





GTR II
Interlude:8x
E--------------------------------------------------------------
B--------------------------------------------------------------
G--14-14-14-14-14-14-14-11-11-11-11-11-11-11--9-9-9-9-9-9-9----
D---x--x--x--x--x--x--x--x--x--x--x--x--x--x--x-x-x-x-x-x-x----
A--12-12-12-12-12-12-12--9--9--9--9--9--9--9--7-7-7-7-7-7-7----
E--------------------------------------------------------------

E----------------------
B----------------------
G--7-7-7-7-7-7-7-------
D--x-x-x-x-x-x-x-------
A--5-5-5-5-5-5-5-------
E----------------------

GTR I
E--------------------------
B--------------------------
G--------------------------
D--2--2--2-----------------
A--2--2--2--2--------------
E--0--0--0--0--------------

Pre Chorus:
E-------------------------------------
B-------------------------------------
G-------------------------------------
D-222222222222222222------------------
A-222222222222222222------------------
E-000000000000000000------------------
  ..................

GTR II/GTR I
Chorus/4x
E--------------------------------------------------------
B--------------------------------------------------------
G---77777777777777-44444444444/55555555555---------------
D---77777777777777-44444444444/55555555555---------------
A---55555555555555-22222222222/33333333333---------------
E--------------------------------------------------------


Play w/Chorus
Fill In:
GTR II
E--------------------------
B--------------------------
G--------------------------
D---5h7p5-5-4h5p4----------
A--------------------------
E--------------------------


End:
E-------------------
B-------------------
G-----(7)-----------
D-----(7)-----------
A-----(5)-----------
E-------------------
Comments