Taking Back Sunday - This Photograph Is Proof Chords & Tabs

 

This Photograph Is Proof Chords & Tabs

Taking Back Sunday Chords & Tabs

Version: 1 Type: Bass Tab 0 ratings
1 star 2 stars 3 stars 4 stars 5 stars
comments

This Photograph Is Proof Bass Tab

Band: Taking Back Sunday
Title: This Photograph Is Proof
Album: Where You want To Be
Tuning: Drop D
Tabber: afirock74@hotmail.com

Intro:
G|---------------------------------------------------------------------|
D|---------------------------------------------------------------------|
A|--5-5--0-5-0-5-5---5-5--0-5-0-5-5---2-2--0-2-0-2-2---2-2--0-2-0-2-2--|
d|---------------------------------------------------------------------|

Verse:
G|---------------------------------------------------------------------|
D|---------------------------------------------------------------------|
A|--5-5--0-5-0-5-5---5-5--0-5-0-5-5---2-2--0-2-0-2-2---2-2--0-2-0-2-2--|
d|---------------------------------------------------------------------|

Pre-Chorus:
G|------------------------------------------------|
D|-----------7-----7------------------------------|
A|---------7---7-----7----------------------------|
d|---7-----------7-----7------9----9-9-9-9-9-9-9--|
[ Tab from: http://www.guitartabs.cc/tabs/t/taking_back_sunday/this_photograph_is_proof_btab.html ]
G|-----------------------------------------|
D|-----------7-----7-----------------------|
A|---------7---7-----7---------------------|
d|---7-----------7-----7---5-5-5-5-5-5-5---|

Chorus:
G|------------------------------------------------------|
D|------------------------------------------------------|
A|---5---5---5---5----2-2-2-2-2-2-2-2--3-3-3-3-3-3-3-3--|
d|-----0---0---0---0------------------------------------|

Bridge:
G|-------------------------------------|
D|-------------------------------------|
A|--2-2-2-2-2-2-2-2-2-2-2-2-2-2-2-2-2--|
d|-------------------------------------|

Interlude:
G|---------------------------------------------------------------|
D|---------------------------------------------------------------|
A|--2-2-2-2-2-2-2-2-2-2-2-2-2-2-2-2-2----------------------------|
d|-------------------------------------5-5-5-5-5-5-5-5-5---2-2-2-|

Last Chorus:
G|------------------------------------------------------|
D|------------------------------------------------------|
A|---5---5---5---5----2-2-2-2-2-2-2-2-------------------|
d|-----0---0---0---0-------------------5-5-5-5-5-5-5-5--|
Comments