Taking Back Sunday - Theres No I In Team Chords & Tabs

 

Theres No I In Team Chords & Tabs

Taking Back Sunday Chords & Tabs

Version: 2 Type: Tab 0 ratings
1 star 2 stars 3 stars 4 stars 5 stars
comments

Theres No I In Team Tab

   
First off, Joe Hill is an idiot!

 Beacause of my awesome talent I can figure songs out the right way!
  Here's the verse's backing guitar. I'm not cocky.

  e----7-----7-----9-
  b-----0-----0-----0
  g---4-----6-----7--
  d------------------
  a-------------------
  e------------------
[ Tab from: http://www.guitartabs.cc/tabs/t/taking_back_sunday/theres_no_i_in_team_tab_ver_2.html ]
 Verse guitar
  
  e------------------
  b-3-2--3-2--3-2--3-2
  g----2-----2----2---2
  d-------------------
  a----------------------
  e---------------------

 Chorus Chords

  B  (D)A  (B)G


  Bridge is just D the whole way through!

 That's exactly how you play it!
Comments