Taking Back Sunday - Theres No I In Team Chords & Tabs

 

Theres No I In Team Chords & Tabs

Taking Back Sunday Chords & Tabs

Version: 1 Type: Tab 0 ratings
1 star 2 stars 3 stars 4 stars 5 stars
comments

Theres No I In Team Tab

   
#---------------------------------PLEASE NOTE----------------------------------#
#This file is the author's own work and represents their interpretation of the #
#song. You may only use this file for private study, scholarship, or research. #
#------------------------------------------------------------------------------#
#------------Created with Taborama Tab Creator-----www.taborama.com------------#
#------------------------------------------------------------------------------#

Title: There's No I In Team
Artist: Taking Back Sunday
Album: Tell All Your Friends

Instrument: 6 String Guitar

Tabbed by: Joe Hill (iomegaman72@msn.com)

Tuning: Standard (E A D G B E)

Decent attempt at a hard song.

Intro and Verse:
E|-------------------------------------------------------------------||
B|-------------------------------------------------------------------||
G|-4-----4-----4-----4-----4---4-------------------------------------||
D|---4-----4-----4-----4-----4---4-----------------------------------||
A|-----2-----2-----2-----2-------------------------------------------||
E|-------------------------------------------------------------------||
  Repeat this however many times you need to.
[ Tab from: http://www.guitartabs.cc/tabs/t/taking_back_sunday/theres_no_i_in_team_tab.html ]
Chorus
E|-------------------------------------------------------------------||
B|-------------------------------------------------------------------||
G|-4----/-7-----2----/-7---------------------------------------------||
D|-4-x14/-7-x2--2-x14/-7-x2--5---------------------------------------||
A|-2----/-5-----0----/-5-----5-x32-----------------------------------||
E|---------------------------3---------------------------------------||
  Note: Number of times each chord is played is based on up and down
  strokes. Repeat this as many times as the chorus goes through.

Bridge (Is that what you call tact?...)
E|----------------||
B|----------------||
G|-7--------------||
D|-7--------------||
A|-5--------------||
E|----------------||
  Just play this however many times with the right ryhthym.

Ending
E|---------------------------------||
B|---------------------------------||
G|-4------2------------------------||
D|-4-x16--2-x16--5-----------------||
A|-2------0------5-x32-------------||
E|---------------3-----------------||

Background Guitar Part Verse (Still working on it...)
E|-7------9------10--------------------------------------------------||
B|--0--x4--0--x4---0--x4---------------------------------------------||
G|---7------7-------7------------------------------------------------||
D|-------------------------------------------------------------------||
A|-------------------------------------------------------------------||
E|-------------------------------------------------------------------||
  You can palm mute or figure out whatever rhythym or more notes but
  these are the main notes.      

Background Guitar Part Chorus
E|-------------------------------------------------------------------||
B|-------------------------------------------------------------------||
G|-4----/-7-----2----/-7-----7---/-6---/-7---/-6---------------------||
D|-x-x14/-x-x2--x-x14/-x-x2--x-x8/-x-x8/-x-x8/-x-x8------------------||
A|-2----/-5-----0----/-5-----5---/-4---/-5---/-4---------------------||
E|-------------------------------------------------------------------||
Comments