Taking Back Sunday - There Is No I In Team Chords & Tabs

 

There Is No I In Team Chords & Tabs

Taking Back Sunday Chords & Tabs

Version: 2 Type: Tab 0 ratings
1 star 2 stars 3 stars 4 stars 5 stars
comments

There Is No I In Team Tab

#-----------------------------------------------------------------------------#
#-- File created with Instab - http://www.pconline.com/~smcarey/instab.html --#
#-----------------------------------------------------------------------------#

Author/Artist: Taking Back Sunday
Title: There's No "I" In Team
Transcribed by: Matt Collins
Email: bonkers049@hotmail.com
[ Tab from: http://www.guitartabs.cc/tabs/t/taking_back_sunday/there_is_no_i_in_team_tab_ver_2.html ]
Intro/Verse
------------------------------------------------------------------------------
-3-2----3-2----3-2---3-2----3-2---2-------------------------------------------
-----2------2------2-----2------2---------------------------------------------
------------------------------------------------------------------------------
------------------------------------------------------------------------------
------------------------------------------------------------------------------
                                                                              
Chorus
------------------------------------------------------------------------------
------------------------------------------------------------------------------
------------------------------------------------------------------------------
--9-9/11--7-7/9--5-5-5-5------------------------------------------------------
--9-9/11--7-7/9--5-5-5-5------------------------------------------------------
--7-7/9---5-5/7--3-3-3-3------------------------------------------------------
                                                                              
Bridge
------------------------------------------------------------------------------
------------------------------------------------------------------------------
------------------------------------------------------------------------------
--12-12-----------------------------------------------------------------------
--12-12-----------------------------------------------------------------------
--10-10-----------------------------------------------------------------------
      The bridge sounds like its lightly palm muted but it sounds fine without
palm muting as long at your distortion level is low.

Ending Note Guitar 1
------------------------------------------------------------------------------
------------------------------------------------------------------------------
------------------------------------------------------------------------------
--9-9-------------------------------------------------------------------------
--9-9-------------------------------------------------------------------------
--7-7-------------------------------------------------------------------------
                                                                              
Guitar 2 plays this as guitar 1 fades out
--9---9---9---9---------------------------------------------------------------
---7---7---7---7--------------------------------------------------------------
----7---7---7---7-------------------------------------------------------------
------------------------------------------------------------------------------
------------------------------------------------------------------------------
------------------------------------------------------------------------------
                                                                              
Email me with questions or comments.
Comments