Taking Back Sunday - There Is No I In Team Chords & Tabs

 

There Is No I In Team Chords & Tabs

Taking Back Sunday Chords & Tabs

Version: 1 Type: Bass Tab 0 ratings
1 star 2 stars 3 stars 4 stars 5 stars
comments

There Is No I In Team Bass Tab

------------------------------------------------------------------------------- 
                 THERE IS NO I IN TEAM - Taking Back Sunday 
------------------------------------------------------------------------------- 

By: Wes (SuperNinja15@aol.com) 

Ok, I just figured this song out like 5 minutes ago because the only one I
knew was "Cute Without the 'E' (Cut From the Team)" and I wanted to learn 
some more TBS. The rhythm is kind of weird, but not difficult to figure out. 
I'll tell you right now that I know the verse is right, but as far as the 
chorus, I know I've got the right root note there, but I haven't
actually taken the time to pick apart the bass line so my tab is just kind of a
suggestion. It doesn't matter if you play it EXACTLY the same. Just have
fun with it. You're the bass player. 

Intro/Verse 
G|---------------------------------------------------| 
D|-------------------------------4-------------------| 
A|---------9---------5h7-------------4-------7h9p7---| 
E|--7-7777---7-9-10-------5-5555---5---5-5-5---------| 
[ Tab from: http://www.guitartabs.cc/tabs/t/taking_back_sunday/there_is_no_i_in_team_btab.html ]
G|---------------------------------------------------| 
D|-------------5-------------5-----------------------| 
A|-------5-------------5-----------------------------| 
E|--3-333--3-3----3-333--3-3-----3---5---------------| 

Chorus 

Again, don't take my word on this one. It's the right roots, but don't count
on the flares at the end being accurate. It's just something I made up, but
don't worry about it, just have some fun with it. 
G|-----------------------------------------------------------------| 
D|---------------------------------------5---------------5---------| 
A|-----9-7----------7h9p7------------------------------------------| 
E|--7>-----10----5>---------3-3333-3-3-3----3-3333-3-3-3-----3--5--| 

Scremo breakdown: 

I saw another tab with this in drop D playing the open low D. I guess that 
could work. I haven't tried that, but I just play the 5th fret on the A, or 
if you just want to totally dominate the E string throughout the whole song 
play the 10th fret on the E string. They're the same note, just an octave 
higher than the open low D. IMPROVISE!!! 
G|--------------------| 
D|--------------------| 
A|--5>(a whole lot)---| 
E|--------------------| 

End here: 

E|--7~--7--| 


*Just a side note. Taking Back Sunday is awesome. One of the best new bands 
I've ever heard. 
===============================================================================
Comments