Taking Back Sunday - The Blue Channel Chords & Tabs

 

The Blue Channel Chords & Tabs

Taking Back Sunday Chords & Tabs

Version: 1 Type: Tab 0 ratings
1 star 2 stars 3 stars 4 stars 5 stars
comments

The Blue Channel Tab

intro
|----0--1-0-----------------------------0---------|
|---3--3--------3-5--3--------3-1-1-------2~------|
|--2--2--------5----5-------3----3-----2------2~--|
|-0-----------5------------3-3--------2-----------|
|------------3-----3------1----------0------------|
|-------------------------------------------------|
[ Tab from: http://www.guitartabs.cc/tabs/t/taking_back_sunday/the_blue_channel_tab.html ]
continued...
|----0-1--0--------------------0-----------|
|---3----3-----3-5--3----1--3---1-----3-2--|
|--2----------5----5-------3-3-------2-----|
|-0-----0----5----5----3------------2------|
|-----------3---------1------------0-------|
|------------------------------------------|

thats all i got folks    but i can never find 
this tab anywhere so i did it myself
peace~
Comments